Atreyu - Bleeding Mascara Chords & Tabs

 

Bleeding Mascara Chords & Tabs

Atreyu Chords & Tabs

Version: 3 Type: Tab 0 ratings
1 star 2 stars 3 stars 4 stars 5 stars
comments

Bleeding Mascara Tab

   
Intro solo for Atreyu "Bleeding Mascara" on The Curse tabbed by Torrin Gray
E-mail at shortys1394533@yahoo.com.  This intro is awesome it's something every guitarist should learn.

Tuning: Drop D (DADGBE)

E-11-13-11-15-11-11-11-13-11-15-11-11-11-13-11-15-11-11-16-15-13-15-13-11-|
B-------------------------------------------------------------------------|
G-------------------------------------------------------------------------|
D-------------------------------------------------------------------------|
A-------------------------------------------------------------------------|
D-------------------------------------------------------------------------|

E-11-13-11-15-11-11-11-13-11-15-11-11-16b-15-13-15b-/-11-13-11-15-11-11-|
B---------------------------------------------------/-------------------|
G---------------------------------------------------/-------------------|
D---------------------------------------------------/-------------------|
A---------------------------------------------------/-------------------|
D---------------------------------------------------/-------------------|

E-11-13-11-15-11-11-11-13-11-15-11-11-16-15-13-15-13-11-11-13-11-15-11-11-|
B-------------------------------------------------------------------------|
G-------------------------------------------------------------------------|
D-------------------------------------------------------------------------|
A-------------------------------------------------------------------------|
D-------------------------------------------------------------------------|
[ Tab from: http://www.guitartabs.cc/tabs/a/atreyu/bleeding_mascara_tab_ver_3.html ]
E-11-13-11-15-11-11--------11-13-15b-/-11-13-11-15-11-11-11-13-11-15-11-11-|
B------------------11-13-15----------/-------------------------------------|
G------------------------------------/-------------------------------------|
D------------------------------------/-------------------------------------|
A------------------------------------/-------------------------------------|
D------------------------------------/-------------------------------------|

E-11-13-11-15-11-11-16-15-13-15-13-11-11-13-11-15-11-11-11-13-11-15-11-11-|
B-------------------------------------------------------------------------|
G-------------------------------------------------------------------------|
D-------------------------------------------------------------------------|
A-------------------------------------------------------------------------|
D-------------------------------------------------------------------------|

E-16b-15-13-15b/-11-13-11-15-11-11-11-13-11-15-11-11-11-13-11-15-11-11-|
B--------------/-------------------------------------------------------|
G--------------/-------------------------------------------------------|
D--------------/-------------------------------------------------------|
A--------------/-------------------------------------------------------|
D--------------/-------------------------------------------------------|

E-16-15-13-15-13-11-15-13-11-------------------------------------------------|
B---------------------------15-13-11-15-13-11-13-11--13-11-------------------|
G--------------------------------------------------14-----14-14-12-11-15b-15-|b
D----------------------------------------------------------------------------|
A----------------------------------------------------------------------------|
D----------------------------------------------------------------------------|

That's the intro solo for "Bleeding Mascara" by Atreyu hope u like it.
Comments