Atreyu - Bleeding Mascara Chords & Tabs

 

Bleeding Mascara Chords & Tabs

Atreyu Chords & Tabs

Version: 1 Type: Bass Tab 0 ratings
1 star 2 stars 3 stars 4 stars 5 stars
comments

Bleeding Mascara Bass Tab

   
Tuning-C,G,C,F

Intro
F|---------------------------------||
C|---------------------------------||
G|---------------------------------||
C|--0~~----3--6--5~~--8~~----------||

Last Time
F|---------------------------------||
C|---------------------------------||
G|---------------------------------||
C|--0~~----3--6--5-----5--3--------||


Verse
0:21
F|--------------------------------------||
C|--------------------------------------||
G|--------------------------------------||
C|-00--8p7--3h5--00--8p7--3h5--00--8~~--||

F|--------------------------------------||
C|--------------------------------------||
G|--------------------------------------||
C|-00--8p7--3h5--00--8p7--3h5--00--1~~--||


F|------------------------|----------------------------------||
C|------------------------|----------------------------------||
G|------------------------|----------------------------------||
C|-00--5/6--00--9/10--00--|-8-8-8-8-8-8-8-8--5-5-5-5-5-5-5-5-||

F|--------------------------------------||
C|--------------------------------------||
G|--------------------------------------||
C|-00--8p7--3h5--00--8p7--3h5--00--8~~--||

F|--------------------------------------||
C|--------------------------------------||
G|--------------------------------------||
C|-00--8p7--3h5--00--8p7--3h5--00--1~~--||

                              v repeat 2 times
F|------------------------|----------------------------------||
C|------------------------|----------------------------------||
G|------------------------|----------------------------------||
C|-00--5/6--00--9/10--00--|-8-8-8-8-8-8-8-8--5-5-5-5-5-5-5-5-||

Chorus x4
0:44                                     v last time 
F|-------------------------------------|-------------------|
C|-------------------------------------|-------------------|
G|-------------------------------------|-------------------|
C|-5-5-5-5--8-8-8-8--0-0-0-0--3-3-3-3--|-5-5-5-5--8-8-8-8--|
[ Tab from: http://www.guitartabs.cc/tabs/a/atreyu/bleeding_mascara_btab.html ]
Verse 
1:01
F|--------------------------------------||
C|--------------------------------------||
G|--------------------------------------||
C|-00--8p7--3h5--00--8p7--3h5--00--8~~--||

F|--------------------------------------||
C|--------------------------------------||
G|--------------------------------------||
C|-00--8p7--3h5--00--8p7--3h5--00--1~~--||


F|------------------------|----------------------------------||
C|------------------------|----------------------------------||
G|------------------------|----------------------------------||
C|-00--5/6--00--9/10--00--|-8-8-8-8-8-8-8-8--5-5-5-5-5-5-5-5-||

F|--------------------------------------||
C|--------------------------------------||
G|--------------------------------------||
C|-00--8p7--3h5--00--8p7--3h5--00--8~~--||

F|--------------------------------------||
C|--------------------------------------||
G|--------------------------------------||
C|-00--8p7--3h5--00--8p7--3h5--00--1~~--||


F|------------------------|----------------------------------||
C|------------------------|----------------------------------||
G|------------------------|----------------------------------||
C|-00--5/6--00--9/10--00--|-8-8-8-8-8-8-8-8--5-5-5-5-5-5-5-5-||

Bridge 
1:21
F|-----------------------------------------------||
C|-----------------------------------------------||
G|-----------------------------------------------||
C|-00000-00000--3h6-3h5--0-0-0-0-0-0-0--3h6-3h5--||

Solo part
1:31
F|-----------------------------------------------||
C|-----------------------------------------------||
G|-----------------------------------------------||
C|-00000-00000--3h6-3h5--0-0-0-0-0-0-0--3h6-3h5--||

Chorus x3
1:52
F|-------------------------------------|-------------------|
C|-------------------------------------|-------------------|
G|-------------------------------------|-------------------|
C|-5-5-5-5--8-8-8-8--0-0-0-0--3-3-3-3--|-5-5-5-5--8-8-8-8--|

Outro
2:07
F|----------------------------------------------------------||
C|----------------------------------------------------------||
G|----------------------------------------------------------||
C|-0~~-8~~--5-5-5-5-5-5-5--3-3-3-3-3-3-3--5-5-5-5--3-2-0~~--||
Comments