Atreyu - A Vampires Lament Chords & Tabs

 

A Vampires Lament Chords & Tabs

Atreyu Chords & Tabs

Version: 5 Type: Tab 0 ratings
1 star 2 stars 3 stars 4 stars 5 stars
comments

A Vampires Lament Tab

a vampires lament by atreyu.
suicide notes and butterfly kisses.
an awesome song you have to learn this riff, its my favourite riff i have improved on
the other solo as i think it is slightly wrong but it is good.
so have fun and be stoked for this easy riff is mental.

tabbed by Will GRAVES 69 69 69 69 69

|----3-1-0h1p0----5-3---|
|---1------------3---3--|
|--2------------4-----4-|
|-3------------5--------|
|-----------------------|
|-----------------------|
[ Tab from: http://www.guitartabs.cc/tabs/a/atreyu/a_vampires_lament_tab_ver_5.html ]
|-3-1~---let ring----|
|-1-1----------------|
|-2-1----------------|
|-3-0--0-------------|
|------0-------------|
|------0-------------|



|--------------------------------------------------------------|
|--------------------------------------------------------------|
|---------------------------------------------3p0-3p0--3p0-3p0-|
|----3p0-3p0---3p0-3p0----------------------5---------5--------|
|---5--------5---------3-7p3-7p3-3-7p0-7p0---------------------|
|--------------------------------------------------------------|

|-------------------------|
|-------------------------|
|-------------------------|
|-3-7p3-7p3-7-7p3-7p3-----|
|-------------------------|
|-------------------------|

skrew u!
Comments