Atreyu - A Vampires Lament Chords & Tabs

 

A Vampires Lament Chords & Tabs

Atreyu Chords & Tabs

Version: 2 Type: Tab 0 ratings
1 star 2 stars 3 stars 4 stars 5 stars
comments

A Vampires Lament Tab

Guitar 1
__________


D|-----------------------------------------------------------------------------------|
A|-----------------------------------------------------------------------------------|
F|-----------------------------------------------------------------------------------|
C|-0----777888777555--0--0--75353232020----------------------------------------------|
G|-0------------------0--0-------------3---------------------------------------------|
C|-0------------------0--0-----------------------------------------------------------|
                      .  .

  play twice
D|-----------------------------------------------------------------------------------|
A|-----------------------------------------------------------------------------------|
F|-----------------------------------------------------------------------------------|
C|-000-000-000-000-777888777555-000-000-000-000-888777333000-------------------------|
G|-000-000-000-000--------------000-000-000-000--------------------------------------|
C|-000-000-000-000--------------000-000-000-000--------------------------------------|
   ... ... ... ...              ... ... ... ... 

       				    1st time			    2nd time
D|--------------------------------|------------------------------|-------------------|
A|--------------------------------|------------------------------|-------------------|
F|--------------------------------|-----------------------888777-|--------------8-7--|
C|-000-000-000-000-777888777555---|-000-000-000-000-777888-------|-0-0-0-0-/7-8------|
G|-000-000-000-000----------------|-000-000-000-000--------------|-0-0-0-0-----------|
C|-000-000-000-000----------------|-000-000-000-000--------------|-0-0-0-0-----------|
   ... ... ... ...                  ... ... ... ...                 . . . . 

  play twice
D|-----------------------------------------------------------------------------------|
A|-----------------------------------------------------------------------------------|
F|-----------------------------------------------------------------------------------|
C|-000-000-000-000-7-8-7-5-000-000-000-000-8-7-3-0-----------------------------------|
G|-000-000-000-000---------000-000-000-000-------------------------------------------|
C|-000-000-000-000---------000-000-000-000-------------------------------------------|
   ... ... ... ...         ... ... ... ...


D|--------------------------------------------------|--------------------------------|
A|--------------------------------------------------|--------------------------------|
F|----------------------------------------------8-7-|--------------------------------|
C|-000-000-000-000-7-8-7-5-000-000-000-000-/7-8-----|--------------------------------|
G|-000-000-000-000---------000-000-000-000----------|--------------------------------|
C|-000-000-000-000---------000-000-000-000----------|--------------------------------|
   ... ... ... ...         ... ... ... ...


D|-----------------------------------------------------------------------------------|
A|-7------5------9------7------7---------5------9----9/10-7--------------------------|
F|-----------------------------------------------------------------------------------|
C|-5-0000-3-0000-7-0000-5-0000-5-0-00-00-3-0000-7-00-7/-8-5--------------------------|
G|---0000---0000---0000---0000---0-00-00---0000---00---------------------------------|
C|---0000---0000---0000---0000---0-00-00---0000---00---------------------------------|
     ....   ....   ....   ....   . .. ..   ....   ..

[ Tab from: http://www.guitartabs.cc/tabs/a/atreyu/a_vampires_lament_tab_ver_2.html ]
D|-----------------------------------------------------------------------------------|
A|------7---------5------9------7------7---------5------9999910----------------------|
F|-----------------------------------------------------------------------------------|
C|-0000-5-0-00-00-3-0000-7-0000-5-0000-5-0-00-00-3-0000-77777-8----------------------|
G|-0000---0-00-00---0000---0000---0000---0-00-00---0000------------------------------|
C|-0000---0-00-00---0000---0000---0000---0-00-00---0000------------------------------|
   ....   . .. ..   ....   ....   ....   . .. ..   ....


D|-----------------------------------------------------------------------------------|
A|-----------------------------------------------------------------------------------|
F|-----------------------------------------------------------------------------------|
C|-3-3-5-3---3H5P3-2-2-5-3-33H5P3-3-3-5-3-3H5P3-2-2-5-3-33H5P32----------------------|
G|-5-5-5-5-5-------3-5-5-5-55-----5-5-5-5-5-----3-5-5-5-55-----3---------------------|
C|-----------------------------------------------------------------------------------|



D|-----------------------------------------------------------------------------------|
A|-----------------------------------------------------------------------------------|
F|-5-5-7-5---5H7P5-4-4-7-5---5H7P54-5-5-7-5---5H7P5-4-4-7-5---5H7P54-----------------|
C|-7-7-7-7-7-------5-5-7-7-7--------7-7-7-7-7-------5-5-7-7-7--------5---------------|
G|-----------------------------------------------------------------------------------|
C|-----------------------------------------------------------------------------------|


  four times
D|---------------------|-------------------------------------------------------------|
A|---------------------|-------------------------------------------------------------|
F|---------------------|-------------------------------------------------------------|
C|-7-7-7----9--9--9----|-------------------------------------------------------------|
G|-88-8-8--1010-10-10--|-------------------------------------------------------------|
C|---------------------|-------------------------------------------------------------|



D|-----------------------------------------------------------------------------------|
A|-----------------------------------------------------------------------------------|
F|-10----10--------------------------------------------------------------------------|
C|-------------0---------------------------------------------------------------------|
G|--8-----7----0---------------------------------------------------------------------|
C|-------------0---------------------------------------------------------------------|


  six times
D|-----------------------------------------------------------------------------------|
A|-----------------------------------------------------------------------------------|
F|-----------------------------------------------------------------------------------|
C|-----------------------------------------------------------------------------------|
G|-----------------------------------------------------------------------------------|
C|-12121215P1215P12-12121215P1215P12-10101014P1014P10-10101014P1014P10---------------|



D|-----------------------------------------------------------|-----------------------|
A|-----------------------------------------------------------|-----------------------|
F|-----------------------------------------------------------|-----------------------|
C|-----------------------------------------------------------|-----------------------|
G|-10101013P1013P10-10101013P1013P10-88812P812P8-88812P812P8-|-----------------------|
C|-----------------------------------------------------------|-----------------------|


  four times                     last time
D|-----------------------------|-----------------------------------------------------|
A|-----------------------------|-----------------------------------------------------|
F|-7-7777-5-5555-3-3333-5-5555-|-7---------------------------------------------------|
C|-7-7777-5-5555-3-3333-5-5555-|-7---------------------------------------------------|
G|-5-5555-3-3333-1-1111-3-3333-|-5---------------------------------------------------|
C|-----------------------------|-----------------------------------------------------|


think this is right, gtr 2 part should be in soon, if not already.
Comments