Atomship - Withered Chords & Tabs

 

Withered Chords & Tabs

Atomship Chords & Tabs

Version: 1 Type: Chords 0 ratings
1 star 2 stars 3 stars 4 stars 5 stars
comments

Withered Chords

   
----------------------------------------------------------------------------
			     WITHERED - Atomship
----------------------------------------------------------------------------
Tabbed by: A Darker Breed
Email: ADarkerBreed@gmail.com

Tuning: D#,A#,F#,C#,G#,D#

Intro/Outro

     Esus4  CM7/E      Em9    Em7#5
d#|-----------------------------------|
G#|----0---------0------5----------3--|
C#|---2--2-------0-----0--0--------0--| x2
F#|--2----2----2------4----4-----2----|
A#|-0--------3-------5------5--3------|
D#|-----------------------------------|

Verse
V     ^    V     ^    V   ^ ^  ^ V ^ V V  ^ ^
Esus4                 CM7/E       Em9    Em7#5
Because it's two in the morning and I'm feeling so ugly
I've got this chip on my shoulder it keeps my eyes spread wide open

Verse 2

It seems the sun is still sleeping and I'm feeling so lonely
Theres a girl in my bedroom, don't you worry she's not breathing


[ Tab from: http://www.guitartabs.cc/tabs/a/atomship/withered_crd.html ]
Chorus
V                  ^    V ^ V                  (see below)
G                       D                         Em
If you'd let me go, then I'd walk myself into my room, yes I will
Then I'd lay right down and daydream of you, yes I will
With a soul tell smile I'll blow a kiss to you, yes I will
Then I'd lay right down and daydream of you

(play the Em in the chorus like this)

d#|-------------------------------|
G#|----0-----0-----0--------------|
C#|----0-----0-----0--------------|
F#|----2-----2-----2--------------|
A#|----2-----2-----2--------------|
D#|--0----0-----0--0--------------|


Bridge (Played after first chorus as just guitar over picked intro and during bridge)

     Esus4             CM7/E             Em9              Em7#5
d#|------------------------------------------------------------------------|
G#|--0-----0-----0-----0-----0------0-----5-----5-----5-----3-----3-----3--|
C#|---2-----2-----------0-----0------------0-----0-----------0-----0-----|x2
F#|----2-----2-----------2-----2--2---------4-----4-----------2-----2------|
A#|-0-----------------3------------------5----------------3----------------|
D#|------------------------------------------------------------------------|

V       V                 V  ^   V   ^           V ^ V ^ V ^  
D                         C                       G
And though your soul's been withered and whisped away.
My grey matter brings me home.
And though your soul's been withered and whisped away.
Your grey matter brings you home.

----------------------------------------------------------------------------

Intro/Outro
Verse
Chorus
Bridge (w/ lead)
Verse
Chorus
Bridge
Chorus
Intro/Outro
Comments