Atomship - Time For People Chords & Tabs

 

Time For People Chords & Tabs

Atomship Chords & Tabs

Version: 1 Type: Tab 0 ratings
1 star 2 stars 3 stars 4 stars 5 stars
comments

Time For People Tab

   
Artist: Atomship
Song: Time for People
Album: The Crash of '47

tuning: drop d (d a d g b e)

acoustic intro chords: clean
e---------|
b---------|
g-7---10--|
d-7---10--|
a-5---8---|
d---------|

electric intro/after verse riff: distorted, palm mute all the opens
e-----------------------------------|
b-----------------------------------|
g-----------------------------------|
d-----0----2b0------0---2b0------0~-|
a---0-------------0------------0----|
d-0-----0-------0-----0------0------|

verse chord pt.1 : distorted
e----------|
b----------|
g------10--|
d-10---10--|
a-8----8---|
d-8----8---|

this is the second part, played during the verse and acoustic intro, that is clean. 
for the timing of when to come in.
e---------8~--------------|
b--------------------10~--|
g------10----------9------|
d---10----------10--------|
a-8-----------8-----------|
d-------------------------|

chorus chords (same as acoustic intro): distorted
e---------|
b---------|
g-7---10--|
d-7---10--|
a-5---8---|
d---------|

small variation of distorted intro/ after verse riff:
e----------------------|
b----------------------|
g------------------2~--|
d-----0---2b0------0~--|
a---0------------0-----|
d-0-----0------0-------|
[ Tab from: http://www.guitartabs.cc/tabs/a/atomship/time_for_people_tab.html ]
interlude: clean with vibrato and chorus
e--------------------------------------------------|
b--------------------------------------------------|
g--------------------------------------------------|
d---0---0---0---0---0---0---0---0------------------|
a--------------------------------------------------|
d-5---7---8---7---5---7---8---7--------------------|

second part of interlude X4
e--------------------------------------------------|
b--------------------------------------------------|
g-----3---2--------2---3-------3---2-------2---3---|
d---0---0--------0---0-------3---3-------0---0-----|
a--------------0-----------1-----------0-----------|
d-5------------------------------------------------|

===================================================

lyrics:

i found no people for killing time
so i found time for killing people
i found no rythym i would rhyme
so i ryhme rythym for the people

and if you wait on me
i'll be free one day
and if you wait on me
i'll be free one day

contemplating genocide
upstairs waving scared of people
afraid that feeling hasn't died
it gets lonely for my people

and if you wait on me
i'll be free one day
and if you wait on me
i'll be free one day
and if you wait on me
i'll be free one day
and if you wait on me
i'll be free one day

People always drifting out of pain
They cannot hold onto nothingness
Fingers bleed on the concrete walls
leaving only one nail for someone to see
Only one nail screaming to me
so many fingers pointing at me
so many fingers pointing at me
so many fingers pointing at me

I found no people for killing time
so I found time for killing people
I found no people for killing time
so I found time for killing people
Killing people, killing people, killing people

I found no people for killing time
so I found time for killing people
Killing people, killing people
Killing people, killing people
==================================================

so that's about it! hope you enjoy playing this song, its very catchy.
Comments