Atomship - Mothra Chords & Tabs

 

Mothra Chords & Tabs

Atomship Chords & Tabs

Version: 2 Type: Tab 0 ratings
1 star 2 stars 3 stars 4 stars 5 stars
comments

Mothra Tab

   
Atomship - Mothra
Tabbed By: Dallas
Email: MuDKoRn69@aol.com

Tuning: Standard (D G C F A D)


d|----------------------------------------------------------------||
A|--------------------DRUMS-------INTRODUCTION--------------------||
F|---------------------------------------sss----------------------||
C|---------DDD---r-rr--u--u---m-mm-mm---s___----------------------||
G|---------D--D--rr----u--u---mm--m--m------s---------------------||
D|---------DDD---r------uu----m---m--m---sss----------------------||

 Time (0:06)
Entrance: with echo..echo..echo..echo
d|-----------|-----------|-----------|-----------|-----------||
A|-----------|-----------|-----------|-----------|-----------||
F|-----------|-15-15-----|-14-14-----|-----------|-----------||
C|-12-12-----|-----------|-----------|-12-12-----|-----------|| Gtr. I
G|-----------|-----------|-----------|-----------|-----------||
D|-----------|-----------|-----------|-----------|-----------||

d|-----------|-----------|-----------|-----------|-----------||
A|-----------|-----------|-----------|-----------|-----------||
F|-----------|-----------|-----------|-----------|-----------||
C|-----------|-----------|-----------|-----------|-----------|| Gtr. II
G|-----------|-----------|-----------|-----------|------10/12||
D|-----------|-----------|-----------|-----------|-----------||


d|-----------|-----------|-----------|-----------|-----------||
A|-----------|-----------|-----------|-----------|-----------||
F|-----------|-15-15-----|-14-14-----|-----------|-----------||
C|-12-12-----|-----------|-----------|-----------|-----------|| Gtr. I
G|-----------|-----------|-----------|-----------|-----------||
D|-----------|-----------|-----------|-----------|-----------||

d|-----------|-----------|-----------|-----------|-----------||
A|-----------|-----------|-----------|-----------|-----------||
F|-----------|-----------|-----------|-----------|-----------||
C|-----------|-----------|-----------|-----------|-----------|| Gtr. II
G|------10h12p10---8-10--|-----------|-----------|-----------||
D|-----------|-----------|-------8---|------10---|-----------||


[ Tab from: http://www.guitartabs.cc/tabs/a/atomship/mothra_tab_ver_2.html ]
d|-----------------------------------------------------------||
A|-------improvise-------------------------------------------||
F|-----------------------------------------------------------||
C|-----------------------------------------------------------||
G|-----------------------------------------------------------||
D|-----------------------------------------------------------||


"mothra versus the world, lets play"
e|----------------------------------------------------------------||
A|----------------------------------------------------------------||
F|----13-12-------13-10-------13-8-------13-12--------------------||
C|-10---------10----------10---------10---------------------------||
G|----------------------------------------------------------------||
D|----------------------------------------------------------------||



E|---------------------------------------------------||
B|---------------------------------------------------||
G|-----17-12--------15-10---------13-8---------13-12-||
D|-10----------10------------10-----------10---------||
A|---------------------------------------------------||
E|---------------------------------------------------||

LETS PLAY!! (heavy distortion)
E|---------------------------------------------------------||
B|---------------------------------------------------------||
G|---------------------------------------------------------||
D|--3-3---4---2---3-3-000----------------------------------||
A|--3-3---4---2---3-3-000----------------------------------||
E|--1-1---2---0---1-1-000----------------------------------||
                      pm.
Verse
E|------------||
B|------------||
G|------------||
D|------------||
A|--0---------||
E|--0---------||x8

Interlude
E|------------------------------------------------||
B|------------------------------------------------||x3 then bend 
G|------555----------555-66-44--------------------||the last note 
D|------------------------------------------------||the last time
A|------------333---------------------------------||Then play again
E|------------------------------------------------||



E|------------------------------------------------||
B|------------------------------------------------||x7
G|------------------------------------------------||
D|--3-3-3--0-0-0--3-3-3--4-4--2-2--3-3-3----------||
A|--3-3-3--0-0-0--3-3-3--4-4--2-2--3-3-3----------||
E|--1-1-1--0-0-0--1-1-1--2-2--0-0--1-1-1----------||
 pm . . .  . . .  . . .  . .  . .  . . .

MOTHRA!
E|------------------------------------------------||
B|------------------------------------------------||
G|------------------------------------------------||
D|--3-3---4---2---3-3-000-------------------------||
A|--3-3---4---2---3-3-000-------------------------||
E|--1-1---2---0---1-1-000-------------------------||
                      pm.
Comments