Atomic Bitchwax - Aint Nobody Gonna Hang Me In My Home Chords & Tabs

 

Aint Nobody Gonna Hang Me In My Home Chords & Tabs

Atomic Bitchwax Chords & Tabs

Version: 1 Type: Bass Tab 0 ratings
1 star 2 stars 3 stars 4 stars 5 stars
comments

Aint Nobody Gonna Hang Me In My Home Bass Tab

Artist: The Atomic Bitchwax
Song: Ain't Nobody Gonna Hang Me in My Home
Album: The Atomic Bitchwax
Bassist: Chris Kosnik
Tabbed by: LedZeplica

p = pull off
/ = slide
b= bend string up

Kosnik uses his own unique effect in this song, which is best described as a 
synthesized flanger. I just use a synth effect.

Here's the main riff..
The first time it's played, the bass doesnt come in until halfway through the 
riff..
G|---------------------------------------
D|---------------------------------------
A|--5-3p0-5---5-3p0-5---5-3p0-5----------
E|--------------------------------3-4-5--
B|---------------------------------------

G|---------------------------------------
D|--------------------------------5-6-7--
A|--5-3p0-5---5-3p0-5---5-3p0-5----------
E|---------------------------------------
B|---------------------------------------

Play this riff twice
Rest
Play main riff twice again

Then play riff 2..
G|---------------------
D|---------------------
A|---------------------
E|------1---3---1-3-1--
B|--3------------------

Then play the main riff twice again
Then play riff 2 twice

Then play riff 3..
G|-----------------------------------------
D|-------------3-3-3-----5-5-5-------------
A|--5-5-5p3p0-------3p0--------3p0---------
E|----------------------------------3-4-5--
B|-----------------------------------------
Play it four times..

Then play this..
G|---------------------------------
D|-3---------------------------3---
A|---5-5-3-5--5-5-3-5-5-3-5-3------
E|---------------------------------
B|---------------------------------

G|------------------------------
D|-3-------------6-5-3--0-------
A|---5-5-3-5--------------3-----
E|--------------------------1---
B|------------------------------
[ Tab from: http://www.guitartabs.cc/tabs/a/atomic_bitchwax/aint_nobody_gonna_hang_me_in_my_home_btab.html ]
G|---------------------------------
D|-3---------------------------3---
A|---5-5-3-5--5-5-3-5-5-3-5-3------
E|---------------------------------
B|---------------------------------

             (kick in the synth effect at the slide) 
G|--------------------------------
D|-3-------------------------3----
A|---5-5-3-5--8/--0-3--0-3-0--5---
E|--------------------------------
B|--------------------------------

G|---------------------------
D|-3----------6b--5b--3------
A|---5-5-3-5------------5-3--
E|---------------------------
B|---------------------------

G|----------------------------
D|---3------------------------
A|-5--5-3-5------3-5-3--------
E|-----------3-5-------5-3-1--
B|----------------------------

G|---------------------------------
D|-3---------------------------3---
A|---5-5-3-5--5-5-3-5-5-3-5-3------
E|---------------------------------
B|---------------------------------

G|------------------------------
D|-3-----------------------3----
A|---5-5-3-5----0-3--0-3-0--5---
E|------------------------------
B|------------------------------

G|---------------------------------
D|------------3--------------3-----
A|-0-3--0-3-0--5--0-3--0-3-0--5----
E|---------------------------------
B|------------------------------3--


Then rest.. turn the synth effect off..

Then play the main riff for a long time..


Then play this..
G|------------------------------------
D|--------3--------5--------7---------
A|--5-3p0----5-3p0----5-3p0-----------
E|-----------------------------3-4-5--
B|------------------------------------

Then play the main riff a bunch again..


Then end the song like this..
G|-------------------------------------
D|-------3--------5--------7-----------
A|-5-3p0----5-3p0----5-3p0-------------
E|----------------------------5-3-1----
B|----------------------------------3--


The end.

ledzeplica@aol.com

Comments