Atom And His Package - Using The Metric System Chords & Tabs

 

Using The Metric System Chords & Tabs

Atom And His Package Chords & Tabs

Version: 1 Type: Tab 0 ratings
1 star 2 stars 3 stars 4 stars 5 stars
comments

Using The Metric System Tab

   
Tuning:  Standard
Use distortion on pretty much everything.

Verse:
e|--------------------------------------------------------------------------
B|--------------------------------------------------------------------------
G|---------------5------8---------------------------------------------------
D|-5------8------3------6---------------------------------------------------
A|-3------6-----------------------------------------------------------------
E|--------------------------------------------------------------------------
12 inches in a foot, two pints in a quart why don't we make it easy...

Chorus:

e|--------------------------------------------------------------------------
B|--------------------------------------------------------------------------
G|--------8-----------------------------------------------------------------
D|-5------6------8------3---------------------------------------------------
A|-3-------------6------1---------------------------------------------------
E|--------------------------------------------------------------------------
You are drunk with your tradition that has no validity...

Bridge Btwn. 1st chorus and 2nd Verse:

e|--------------------------------------------------------------------------
B|--------------------------------------------------------------------------
G|--------5-----------------------------------------------------------------
D|-8------3------5----------------------------------------------------------
A|-6-------------3----------------------------------------------------------
E|--------------------------------------------------------------------------
(Yardsticks are pathetic)

Solo:
[ Tab from: http://www.guitartabs.cc/tabs/a/atom_and_his_package/using_the_metric_system_tab.html ]
e|--------------------------------------------------------------------------
B|-1-1---1---------------------------1-------------4---3------------------
G|-----3---3-1-3-------0-1-0-----------3-1-3---------0----------------------
D|---------------1-1-3-------3-1-0-----------1-1-1--------------------------
A|---------------------------------3----------------------------------------
E|--------------------------------------------------------------------------

e|--------------------------------------------------------------------------
B|--------------------------------------------------------------------------
G|-5-x-x-x-5-x-x-x-5-5-x-x-x-5-x-x-x-5-5-x-x-x-5-x-x-x-5-5-5-3--------------
D|-5-x-x-x-5-x-x-x-5-5-x-x-x-5-x-x-x-5-5-x-x-x-5-x-x-x-5-5------------------
A|-3-x-x-x-3-x-x-x-3-3-x-x-x-3-x-x-x-3-3-x-x-x-3-x-x-x-3-3------------------
E|--------------------------------------------------------------------------

e|---------------------------------------------------------7/14-------------
B|--------------------------------------------------------------------------
G|-5-x-x-x-5-x-x-x-5-5-x-x-x-5-x-x-x-5-5-x-x-x-5-x-x-x-5-5------------------
D|-5-x-x-x-5-x-x-x-5-5-x-x-x-5-x-x-x-5-5-x-x-x-5-x-x-x-5-5------------------
A|-3-x-x-x-3-x-x-x-3-3-x-x-x-3-x-x-x-3-3-x-x-x-3-x-x-x-3-3------------------
E|--------------------------------------------------------------------------

Probably pretty correct, 'cept there was no timing in there atall. Not a hard
song atall, though a v. good one.  I know alot of this guitar is really synth,
but I just tabbed the stuff that sounds somewhat like guitar.  The keyboard
stuff on the chorus -- add it yourself if ya really want it.  If you think I
suck, email me (iamjosh@vt.edu).  I'm actin' like people are gonna read this
or something.

G'bye
Josh
Comments