Atmosphere - Always Coming Back Home To You Chords & Tabs

 

Always Coming Back Home To You Chords & Tabs

Atmosphere Chords & Tabs

Version: 1 Type: Tab 0 ratings
1 star 2 stars 3 stars 4 stars 5 stars
comments

Always Coming Back Home To You Tab

   
----------------------------------------------------------------------------
		 Always Coming Back Home To You - Atmosphere
----------------------------------------------------------------------------
This is one of the best rap artists around right now, and this song has a cool
acoustic guitar riff in the background.  I must say that I'm proud to be the
inaugural submitter of an Atmosphere tab.  Anyway-this tab is virtually flawless
and if you haven't heard of this guy-run to the nearest music store and pick up
some of his stuff.  His latest cd is called Seven's Travels.  Enjoy

Tabbed by: Ryan Karpeles
Email: ryan-karpeles@uiowa.edu
[ Tab from: http://www.guitartabs.cc/tabs/a/atmosphere/always_coming_back_home_to_you_tab.html ]
Tuning: Standard: Low-High (EADGBe)

Intro, but played throughout entire song.

e|-----------------------------------------------------------------------|
B|-----------------------------------------------------------------------|
G|-------8h9p8---------8--------------------------9----------------------|
D|----11-------11----9------7-------9-------11---------------------------|
A|----------------------------7-------9--------11------------------------|
E|--9--------------7------5-----5-7-----7/9------------------------------|


| /  slide up
| \  slide down
| h  hammer-on
| p  pull-off
| ~  vibrato
| +  harmonic
| x  Mute note
Comments