Atlantic - Power Over Me Chords & Tabs

 

Power Over Me Chords & Tabs

Atlantic Chords & Tabs

Version: 1 Type: Tab 0 ratings
1 star 2 stars 3 stars 4 stars 5 stars
comments

Power Over Me Tab

   
-------------------------------------------------------------------------------
                             POWER OVER ME - Atlantic
-------------------------------------------------------------------------------
Tabbed by: beanboy
Band - http://heavyharmonies.com/cgi-bin/glamcd.cgi?BandNum=945&CDName=Power
Album - http://heavyharmonies.com/cgi-bin/glamcd.cgi?BandNum=945&CDName=Power
Video - http://www.youtube.com/watch?v=6ZBs8980DQ0

Tuning:Standard

Intro

Guitar 1

e|-2---3---2---3---3-----3---2---3---2---------------------------------------|
B|--3---3---3---3---3-----3---3---3---3--------------------------------------|
G|---0---0---0---0---0-----0---2---2---2-----x3------------------------------|
D|---------------------------------------------------------------------------|
A|---------------------------------------------------------------------------|
E|---------------------------------------------------------------------------|

Guitar 2

e|---------------------------------------------------------------------------|
B|---------------------------------------------------------------------------|
G|-----5-----7---------------------------------------------------------------|
D|--2--5--5--7---------------------------------------------------------------|
A|--2--3--5--5---------------------------------------------------------------|
E|--0-----3------------------------------------------------------------------|


Verse

e|----------4------0------0------2-------------------------------------------|
B|----------5------2------0------4-------------------------------------------|
G|----------6------0------1------4------x6-----------------------------------|
D|----------6------2------2------4-------------------------------------------|
A|----------4------0------2------2-------------------------------------------|
E|------------------------0--------------------------------------------------|
Chords -  C#min  Amaj7  Emaj   Bmaj


Pre Chorus
[ Tab from: http://www.guitartabs.cc/tabs/a/atlantic/power_over_me_tab.html ]
e|--0--2--4----0--2-----5----------------------------------------------------|
B|--2--4--5----2--4-----7----------------------------------------------------|
G|--2--4--6----2--4--5--7----------------------------------------------------|
D|--2--4--6----2--4--5--7----------------------------------------------------|
A|--0--2--4----0--2--3--5----------------------------------------------------|
E|---------------------------------------------------------------------------|


Chorus

e|---------------------------------------------------------------------------|
B|---------------------------------------------------------------------------|
G|-----5-----7---------------------------------------------------------------|
D|--2--5--5--7-----x4---slide-down-to-verse----------------------------------|
A|--2--3--5--5---------------------------------------------------------------|
E|--0-----3------------------------------------------------------------------|


Verse
Pre Chorus
Chorus

Under Solo

e|---------------------------------------------------------------------------|
B|---------------------------------------------------------------------------|
G|-2--4--------2--4--5--7----------------------------------------------------|
D|-2--4--2--2--2--4--5--7----------------------------------------------------|
A|-0--2--2--2--0--2--3--5----------------------------------------------------|
E|-------0--0-------------0~--3~--0~---3~------------------------------------|


Chorus till end

e|---------------------------------------------------------------------------|
B|---------------------------------------------------------------------------|
G|-----7-----9---------------------------------------------------------------|
D|--4--7--7--9-----x4---slide-down-to-verse----------------------------------|
A|--4--5--7--7---------------------------------------------------------------|
E|--2-----5------------------------------------------------------------------|


************************************

| /   slide up
| \   slide down
| h   hammer-on
| p   pull-off
| ~   vibrato
| +   harmonic
| x   Mute note
| b   Bend
| pb  Pre-bend
| br  Bend release
| pbr Pre-bend release
| brb Bend release bend

************************************
Comments