Atkins Chet - Imagine Chords & Tabs

 

Imagine Chords & Tabs

Atkins Chet Chords & Tabs

Version: 1 Type: Tab 1 rating
1 star 2 stars 3 stars 4 stars 5 stars
comments

Imagine Tab

Guitar Dropped D tunning, DADGBE



E|-----------------|-----------------|
B|---------3-------|---------3-------|
G|-----2-----2---2-|-----2-----2---2-|
D|---4---4-----4---|---4---4-----4---|
A|-----------------|-----------------|
D|-0---------------|-0---------------|



||--------------------|----------------------|
||o-------------^2----|-^2---^0--------0-1s3-|
||------2---2---^2----|-^2---^0--------------|
||----4---4---4-(4)-4-|----0-(0)-0---0-------|
||o-------------------|----------------------|
||--0-------0---------|--5---------5---------|



|-----------------------|--------------------|
|-----------------^2----|--0-----------0-1s3-|
|-2---2-0---0-2---^2----|-^0---0-------------|
|---4-----4-----4-(4)-4-|----0---0---0-------|
|-----------------------|--------------------|
|-0-----------0---------|-^5-------5---------|


  
|-------------------|----------------------|
|-------------^2----|-^2---^0--------0-1s3-|
|-2---2---2---^2----|-^2---^0--------------|
|---4---4---4-(4)-4-|----0-(0)-0---0-------|
|-------------------|----------------------|
|-0-------0---------|--5---------5---------|



|-----------------------|----------------------|
|-----------------^2----|--0---------------0---|
|-2---2-0---0-2---^2----|-^0------0--------0---|
|---4-----4-----4-(4)-4-|-----0----------0-----|
|-----------------------|----------------------|
|-0-----------0---------|-^5-(5)-(5)-5-4-----4-|


 

|-------------2---|-^2-----0------------|
|-----3---3-------|-^0---^-0------0-3-0-|
|-------4---------|-^0---^-0------------|
|---0-------2---2-|----2-^(2)-2---------|
|-----------------|---------------------|
|-5-------4-------|-^2----------2-------|



|------------------|--------------5-(5)------||
|-2-----2-^2--^3-3h|==5---(5)-5s7-------7s5-o||
|---2-2---^2--^4-4-|-(4)---------------------||
|---2-2------------|-------------------------||
|-0--------0-------|------------------------o||
|------------------|-------------------------||



|--------------2----|-5-3-2-0-3-2h3p2-0----|
|-----3---3----3----|-------------------3--|
|-------4-----------|----------------------|
|---0-------2-(2)-2-|----------------------|
|-------------------|----------------------|
|-5-------4---------|-2-------2------------|



|------------------|--------------5-(5)-----|
|-2-----2-^2--^3-3h|==5---(5)-5s7-------7s5-|
|---2-2---^2--^4-4-|-(4)--------------------|
|---2-2------------|------------------------|
|-0--------0-------|------------------------|
|------------------|------------------------|



|---------------------|--------------------|
|-------3-2-2h3p2---2-|-3----3-------------|
|-----4-----------4---|------2--------3----|
|---0-----------------|---4-(4)-4---2------|
|---------0-----------|--------------------|
|-5-------------------|-0---------4-----4--|



|-----------------|-----------------|---------------------|-------------------|
|-------3-2-2-----|-----------------|-------3-2-2h3p2---2-|-3----3------------|
|-----4-------4-4-|-----2-------3---|-----4-----------4---|------2--------3---|
|---0-------------|-4-4---4---2-----|---0-----------------|---4-(4)-4---2-----|
|---------0-------|-----------------|---------0-----------|-------------------|
|-5---------------|-0-------4-----4-|-5-------------------|-0---------4-----4-|


[ Tab from: http://www.guitartabs.cc/tabs/a/atkins_chet/imagine_tab.html ]
|---------------------|-^5--------------|
|-------3-5-5h7p5---5-|-^7-7-^7---------|
|-----4---6-------7---|----7-^7---------|
|---0-----------------|-------------0---|
|---------0-----------|-----------0---0-|
|-5-------------------|--0--------------|



|-------------------|-------------------------|
|------2----2---5---|-^5---^3----(3)---0-1s3--|
|-------------------|-^4---^4----(4)----------|
|---4-(4)-4---4---4-|----0-(0)-0-----0--------|
|-------------------|-------------------------|
|-0---------0-------|--5----------5-----------|



|-------------------|---------------------|
|-----2---2----5----|-3----0--------0-1s3-|
|-2-----2-2----2----|-4-------------------|
|---4---4---4-(4)-4-|---0-(0)-0---0-------|
|-------------------|---------------------|
|-0-------0---------|-5---------5---------|


 
|-----5-2-5-(5)s=9----|-9----7--------------|
|---------------------|---------------0-1s3-|
|-2-------------------|---------------------|
|---4--------4--(4)-0-|---0-(0)-0---0-------|
|---------------------|---------------------|
|-0-------0-----------|-5---------5---------|



|-----2---2----5----|-3-------------------|
|-------3-----------|------3---------3----|
|-2-----------------|------4---------4----|
|---4-------4-(4)-4-|---0-(0)-----0-(0)---|
|-------------------|---------------------|
|-0-------0---------|-5-------5-4-------4-|


    
|--------------2----|-^2-----0------------|
|-----3---3----3----|-^0-----0------0-3-0-|
|-------4-----------|-^0---^-0------------|
|---0-------2-(2)-2-|----2-^(2)-2---------|
|-------------------|---------------------|
|-5-------4---------|--2----------2-------|



|------------------|--------------5-(5)-----|
|-2-----2-^2--^3-3h|==5---(5)-5s7-------7s5-|
|---2-2---^2--^4-4-|-(4)--------------------|
|---2-2------------|------------------------|
|-0--------0-------|------------------------|
|------------------|------------------------|



|---------------------|---------------------|
|-------3-2-2h3p2---2-|-3-----3-------------|
|-----4-----------4---|-----^-2--------3----|
|---0-----------------|---4-^(4)-4---2------|
|---------0-----------|---------------------|
|-5-------------------|-0----------4-----4--|



|-----------------|-----------------|---------------------|--------------------|
|-------3-2-2-----|-----------------|-------3-2-2h3p2---2-|-3-----3------------|
|-----4-------4-4-|-----2-------3---|-----4-----------4---|-----^-2--------3---|
|---0-------------|-4-4---4---2-----|---0-----------------|---4-^(4)-4---2-----|
|---------0-------|-----------------|---------0-----------|--------------------|
|-5---------------|-0-------4-----4-|-5-------------------|-0----------4-----4-|


 

|---------------------|-^5---------------|
|-------3-5-5h7p5---5-|-^7-7-^7----------|
|-----4---6-------7---|----7-^7------3---|
|---0-----------------|------------2-----|
|---------0-----------|------------------|
|-5-------------------|--0-------4-----4-|



 
|---------------------|-^5----------------|
|-------3-5-5h7p5---5-|-^7-7-^7--(7)------|
|-----4---6-------7---|----7-^7--(7)------|
|---0-----------------|-------------------|
|---------0-----------|-----------------0-|
|-5-------------------|--0------------0---|


|-----------0-2-5\-|-10----*|
|---------3--------|-------*|
|-------2----------|-------*|
|-0-2-4------------|-------*|
|------------------|-------*|
|------------------|-------*|
Comments