Athlete - Tourist Chords & Tabs

 

Tourist Chords & Tabs

Athlete Chords & Tabs

Version: 1 Type: Tab 0 ratings
1 star 2 stars 3 stars 4 stars 5 stars
comments

Tourist Tab

   
Artist: Athlete
Song: Tourist (from the 'Tourist' abulm)
Tabbed By: Alex Branchini

Its the simple chord sequence that is in the intro and most of the song. I haven't put
the rhythem in so u'r going to have to work that one out u'rself, but its all the same
anyway.

Intro: Dm7, Am7, A#maj7, C
[ Tab from: http://www.guitartabs.cc/tabs/a/athlete/tourist_tab.html ]
  Dm7   Am7  A#maj7  C
E]-5-----0-----1-----3-|
B]-6-----1-----3-----5-|
G]-5-----0-----2-----5-|
D]-7-----2-----3-----5-|
A]-5-----0-----1-----3-|
E]-x-----x-----x-----x-|

Second Guitar: (not to sure on but it sounds ok)

E]-13--10----------------------|
B]---------12--10--------------|
G]-----------------12--10--12/-|
D]-----------------------------|
A]-----------------------------|
E]-----------------------------|

Dm7        Am7  A#maj7         C        Dm7
  This european air, it always warms my face
  I don't go braking down, I feel like nothing. etc.........

It my first tab so thanks for reading and plez rate.
Comments