Athlete - Shake Those Windows Chords & Tabs

 

Shake Those Windows Chords & Tabs

Athlete Chords & Tabs

Version: 3 Type: Tab 0 ratings
1 star 2 stars 3 stars 4 stars 5 stars
comments

Shake Those Windows Tab

   
-------------------------------------------------------------------------------
			Shake Those Windows - Athlete
-------------------------------------------------------------------------------

Tabbed by: Alex
Email: alexghunt@hotmail.com

Tuning: Standard, capo on 3rd fret (tab relative to capo)

Notes:

This tab is more or less accurate, but it sounds right and really good. And my first!
Some of the lyrics aren't in time with the tab (and probably spelt wrong), they're just
to give you an idea of what part of the song it is. 
The tab's a bit wordy, but it's worth a look.
/ - slide up

Verse 1:

  G                 Cadd9          
e|-3---3---3---3-----3---3---3---3-------------------------------------------|
B|-3---3---3---3-----3---3---3---3-------------------------------------------|
G|---------------------------------------------------------------------------|
D|---------------------------------------------------------------------------|
A|------------------3---3---3---3--------------------------------------------|
E|3---3---3---3--------------------------------------------------------------|
  Lives in edinborough...

Repeat until...

Chorus 1:

  Bm                      Am                                            G
e|-2---2---2---2-----------0---0---0---0---------------------------------3---|
B|-3---3---3---3-----------1---1---1---1---------------------------------3---|
G|---------------------------------------------------------------------------|
D|---------------------------------------------------------------------------|
A|2---2---2---2-----------0---0---0---0--------------------------------------|
E|----------------------------------------------------------------------3----|
  Shake those windows...  songs and songs...  ...love those clear night skies 

c    c   c   c      Cadd9                   G
Just let the record play and bring it back again
c   c     c c    Cadd9                  G
You can't appriciate what we were in to then


Verse 2:

Play the G from verse 1 until the other instruments come in, then play this...

  G
e|-3---3---3---3--------------3---3------------------------------------------|
B|-3---3---3---3--------------3---3------------------------------------------|
G|-0---0---0---0--------------0---0------------------------------------------|
D|---------------------------2---2-------------------------------------------|
A|2---2---2---2--------------3---3-------------------------------------------|
E|3---3---3---3--------------------------------------------------------------|
          In two seconds...  The beat was...

Repeat until...

Chorus 2:

(Strum the chords)
[ Tab from: http://www.guitartabs.cc/tabs/a/athlete/shake_those_windows_tab_ver_3.html ]
Bm
Shake those windows
Am                                       Bm
songs and songs and beats and rhymes and life

This blackout 
Am                                      G
it just helps to love those clear night skies

Lead guitar 1:

Vocals below start after the slide, repeat it until the vocals stop and end on a last slide

e|------3-2-----3/7-------8-7-------10-10------------------------------------|
B|--3---------3-------8---------8--------------------------------------------|
G|4---4-----4-------9---9-----9---9------------------------------------------|
D|---------------------------------------------------------------------------|
A|---------------------------------------------------------------------------|
E|---------------------------------------------------------------------------|

c                                           G
Just let the record play and bring it back again
c                                       G    
You can't appriciate what we were in to then
c                                           G
Just let the record play and bring it back again
c                                       G    
You can't appriciate what we were in to then

Break:

Keyboard does most of the work here, just repeat this:

e|-------10-10-7-7-----------------------------------------------------------|
B|--8-8----------------------------------------------------------------------|
G|9--------------------------------------------------------------------------|
D|---------------------------------------------------------------------------|
A|---------------------------------------------------------------------------|
E|---------------------------------------------------------------------------|

After the break:

Lead guitar 1 with the slide starts as soon as the vocals do (with the high bit)

c                                           G
Just let the record play and bring it back again
c                                       G    
You can't appriciate what we were in to then
c                                           G
Just let the record play and bring it back again
c                                       G    
You can't appriciate what we were in to then

(Play the rest with power chords, lead guitar stops and keyboard takes over) (not sure about the Am):

c                  (Am)
Just let yourself go 
                    G
Just let yourself go
c                  (Am)
Just let yourself go 
                    G
Just let yourself go

C,G repeat in the instrumental bit until:

c
Just let yourself go 
                    G
Just let yourself go
c
Just let yourself go 
                    G
Just let yourself go

-End-

/ - slide up
Comments