Athlete - Beautiful Chords & Tabs

 

Beautiful Chords & Tabs

Athlete Chords & Tabs

Version: 1 Type: Tab 0 ratings
1 star 2 stars 3 stars 4 stars 5 stars
comments

Beautiful Tab

   
ATHLETE - Beautiful

Pretty good new band. A bit unsure about some of the chorus chords.
Email me if you work out better ones.

starsailoruk@yahoo.com


INTRO

A    E    Am7    D     (PLay A few times)

A
Bring in
       E
In the new sound
Am7
Make it in
   D
Oh please make it in

A
Oh I
          E
Have been missing
Am7
Fill me in
   D
Oh please fill me in

A                   C#m
Oooohhhhh  This is beautiful
            D       A
I've got to soak it up
            D       Bm
I've got to soak it up     (PLAY TWICE)

        A
Give me teeth that
    E
Are golden
Am7
Grown up food
   D
To eat

A
Shine
           E
Shine that light
Am7
Make it in
D
Bring it in

  A                   C#m
Oooohhhhh  This is beautiful
            D       A
I've got to soak it up
            D       Bm
I've got to soak it up     (PLAY TWICE)


e-----------------------------------------------------------|
B--5-7-7--5-7-7--5-7-7--9-9-9-------------------------------|
G-----------------------------------------------------------|
D-----------------------------------------------------------|
A-----------------------------------------------------------|
E-----------------------------------------------------------|
PLAY FOUR TIMES

[ Tab from: http://www.guitartabs.cc/tabs/a/athlete/beautiful_tab.html ]
e------------------------------------------------------------|
B--5-7-7--5-7-7--5-7-7--9-9-9---10-10-10--12-12-12-----------|
G------------------------------------------------------------|
D------------------------------------------------------------|
A------------------------------------------------------------|
E------------------------------------------------------------|


e-----------------------------------------------------------|
B--5-7-7--5-7-7--5-7-7--9-9-9--10-10-10--12-12-12-----------|
G-----------------------------------------------------------|
D-----------------------------------------------------------|
A-----------------------------------------------------------|
E-----------------------------------------------------------|


e-----------------------------------------------------------|
B--13-13-13-13-12-10--13-13-13-12-10--10-10-10-12-12-12-----|
G-----------------------------------------------------------|
D-----------------------------------------------------------|
A-----------------------------------------------------------|
E-----------------------------------------------------------|

e-----------------------------------------------------------|
B--13-13-13-13-12-10--13-13-13-12-10--10-10-10-12-12-12-----|
G-----------------------------------------------------------|
D-----------------------------------------------------------|
A-----------------------------------------------------------|
E-----------------------------------------------------------|

e-----------------------------------------------------------|
B--12-12-12-12b13--12b13------------------------------------|
G-----------------------------------------------------------|
D-----------------------------------------------------------|
A-----------------------------------------------------------|
E-----------------------------------------------------------|

  A                   C#m
Oooohhhhh  This is beautiful
            D       A
I've got to soak it up
            D       Bm
I've got to soak it up     (PLAY TWICE)


starsailoruk@yahoo.com
Comments