Athenaeum - Flat Tire Chords & Tabs

 

Flat Tire Chords & Tabs

Athenaeum Chords & Tabs

Version: 1 Type: Tab 0 ratings
1 star 2 stars 3 stars 4 stars 5 stars
comments

Flat Tire Tab

   
Flat Tire - Athenaeum

-=Charter=-
ei, dudez!!! this is my 4th tab!!
i like this song so much!
i sure this is a 97.8% perfect!!!
Hope u like it....
Rock On!!!
-=Charter=-

Standard Tuning:

Intro:
E----------------------------------------------------------------|
B----------------------------------------------------------------|
G----------------------------------------------------------------|
D---0--2--4--4b--2--0--2-----------------------------------------|
A----------------------------------------------------------------|
E----------------------------------------------------------------|

E----------------------------------------------------------------|
B----------------------------------------------------------------|
G----------------------------------------------------------------|
D---4b--2--0--2--------------------------------------------------|
A----------------------------------------------------------------|
E----------------------------------------------------------------|

E----------------------------------------------------------------|
B----------------------------------------------------------------|
G----------------------------------------------------------------|
D---4b--2--0--2--------------------------------------------------|
A----------------------------------------------------------------|
E----------------------------------------------------------------|

1st SOLO:
E----------------------------------------------------------------|
B----------------------------------------------------------------|
G---7-7-7-7/9---9-9/12--12--12/14--14/16-16-16-------------------|
D----------------------------------------------------------------|
A----------------------------------------------------------------|
E----------------------------------------------------------------|

E----------------------------------------------------------------|
B----------------------------------------------------------------|
G---7-7-7-7/9---9-9/12--12---12-12-12/11--11-11--9--7------------|
D----------------------------------------------------------------|
A----------------------------------------------------------------|
E----------------------------------------------------------------|

E----------------------------------------------------------------|
B----------------------------------------------------------------|
G---7---7h9--9-9--9-11-11b-9-7-----------------------------------|
D-----9----------------------------------------------------------|
A----------------------------------------------------------------|
E----------------------------------------------------------------|

E----------------------------------------------------------------|
B----------------------------------------------------------------|
G---12-14-16--14-12--11-9--9-7-9-11-12-11-9-7/9------------------|
D----------------------------------------------------------------|
A----------------------------------------------------------------|
E----------------------------------------------------------------|

[ Tab from: http://www.guitartabs.cc/tabs/a/athenaeum/flat_tire_tab.html ]
2nd SOLO:
E----------------------------------------------------------------|
B----------------------------------------------------------------|
G--7-7-7--7h9--9-9---9-9-7--7h9--9-9---9-9-7--7h9--9-9-----------|
D----------------------------------------------------------------|
A----------------------------------------------------------------|
E----------------------------------------------------------------|

E----------------------------------------------------------------|
B----------------------------------------------------------------|
G---9-11-11h12\11-9-7----/9-12-12--12h14---14-14/16--16-14-------|
D----------------------------------------------------------------|
A----------------------------------------------------------------|
E----------------------------------------------------------------|

E----------------------------------------------------------------|
B----------------------------------------------------------------|
G---14\12--12\11--11\9--9\7--7---7h9-----------------------------|
D------------------------------9---------------------------------|
A----------------------------------------------------------------|
E----------------------------------------------------------------|


Intro: Em-G-D-C (2x)


Stanza 1:

Em
So tough
   G
I didn't even wanna chew
D                  C
Your lies were the best I ever knew
Em                    G
New car, new clothes, new attitude
D                                 C
You were always in the headlines, weren't you?


Refrain 1:

Am               G
You better slow down
                      Am                 D
They're draggin' your name all over this town


Stanza 2:

Em
No luck
          G
Always in second place
D                  C
A flat tire on the road to a better place
Em                        G
And you know there's some things that you can't deny
D                      C
You were always on the run with some other guy


[Repeat Refrain 1]


Refrain 2:

Am                     Em
What comes around goes around
D
Yeah


Chorus:

G      D                Em
The truth is gonna come out
                Bm               C
And I'll be the first to open my mouth
    D            Am
But who is gonna treat you right?
  D
You better know tonight

G       D               Em
The truth is gonna take place
                Bm                  C
And I'll be the first one savin' my face
        D                 Am
But who is gonna love you more?
            D         C
No one ever knows for sure
D
Who?


Solo 1:
C-D-Em-Bm-C-D-Am-D-Em


[Repeat Stanza 1]
[Repeat Refrain 1 & 2]
[Repeat Chorus]


Solo 2:
C-D-Em-Bm-C-D-Am-D----Em


Thanx a lot!!!!
Comments