Atheist - I Deny Chords & Tabs

 

I Deny Chords & Tabs

Atheist Chords & Tabs

Version: 1 Type: Bass Tab 0 ratings
1 star 2 stars 3 stars 4 stars 5 stars
comments

I Deny Bass Tab

   
================================================================================
         Title : I Deny
        Artist : Atheist
         Album : Piece Of Time
Transcribed by : J. Litvak, converted and corrected by : Coypu
================================================================================

Some timings are not exact so listen to the song and you will have no trouble
figuring it out.

This song has very advanced and often "hidden" bass lines that are hard to hear, 
so too understand the tab correctly i recomend that you listen very carefully and
if possible with a program that can speed the song down.

INTRO:
G|------------9-----------------8----------------9-------11--------12--------|
D|--------------10----------------9----------------10-------12---------14----|
A|*----------------7---------------------------------------------------------|
E|--0--0-0-0----------0--0-0-0------7--0--0-0-0-------8--------10---------12-|
B|---------------------------------------------------------------------------|

G|----------9----------------8----------------9------------------8------|
D|------------10---------------9----------------10-----------------9----|
A|---------------7-----------------------------------------------------*|
E|-0--0-0-0---------0--0-0-0-----7--0--0-0-0-------8--0--0-0-0-------7--|
B|----------------------------------------------------------------------|

FILL
B|-------------------------------------------------|
G|-------------------------------------------------|
D|--------7---------9--------10--------------------|
A|------------------------------------------2------|
E|-----------------------------------------------1-|

SECTION B:
G|--------------10---------------------------9---------------|
D|------9---10-----------------------7---8-------------------|
A|*--7-------------------0-0-0--5----------------------------|
E|----------------8-8-8------------------------6-6-6---------|
B|------------------------------------------------------6-6-6|

SECTION C:
G|------------------------------------------------------------|
D|------------------------------------------------------------|
A|------------------------------------------------------------|
E|---3--0---0--0--3-3--0--0--0--3-3--0--3-3--0--3-3--0--0--0--|
B|------------------------------------------------------------|
                                            
SECTION D: *  Guitar 2 plays Section C with triplet at end of each measure.

FILL 2
G|--------------------------------------|
D|--------------------------------------|
A|---5--7------8------------------------|
E|--------------------7/8---------------|
B|--------------------------------------|

SECTION E:
G|------------------------------------------------------|
D|------------------------------------------------------|
A|------------------------------------------------------|
E|-3--0--0--0--3-3--0--0--0--3-3--0--3-3--0--3-3--0--0--|
B|------------------------------------------------------|

G|----------------------------------------|
D|----------------------------------------|
A|-----5--7-----8---\-3-----1-1-1---------|
E|---------------------------------1-1-1--|
B|----------------------------------------|                                                         
                                         *  Repeat Section B.

SECTION F: 
G|----------------------------------------------------|
D|----------------------------------------------------|
A|----------------------------------------------6-----|
E|---0--------------2/-3---2-2-2-----5/-7--6--6-------|
B|----------------------------------------------------|

G|---------------------------------------------|
D|---------------------------------------------|
A|---------------------------------------------|
E|-------6/-7---6----6-6-6---6----6\2----1-----|
B|---------------------------------------------|

SECTION G:
G|---------------------------------------------------------|
D|---------------------------------------------------------|
A|*------1-----------1--------------1----------1-------1--*|
E|---0-------0-0-0-------0-0-0--0-------0--0-------0-------|
B|---------------------------------------------------------|
				4x
G|-------------------------------------------------------------|
D|-------------------------------------------------------------|
A|-----1-------5--5-------------------8---8--------------------|
E|-0-------x-x--------x-x-6--6---x-x---------x-x-x-3---3---x-x-|
B|-------------------------------------------------------------|
               3x

SECTION H:
G|--------------------------------------------|
D|--------------------------------------------|
A|---3------1-1-1------3-------0-1-1----------|
E|--------------------------------------------|
B|--------------------------------------------|

G|-----------------------------------------------------------------|
D|-----------------------------------------------------------------|
A|*----6-7-8--7-6-5---6-7-8--7-6-5---4-5-6--5-4-3---4-5-6--5-4-3---|
E|-----------------------------------------------------------------|
B|-----------------------------------------------------------------|
                                              End SECTION H: here *

G|--------------------------------------------------------------------|
D|-----8-9-10--9-8-7---8-9-10--9-8-7---6-7-8--7-6-5---6-7--8--7-6-5---|
A|-------------------------------------------------------------------*|
E|--------------------------------------------------------------------|
B|--------------------------------------------------------------------|

[ Tab from: http://www.guitartabs.cc/tabs/a/atheist/i_deny_btab.html ]
SECTION I:
G|-----------2---5-5h4p5--2------4--5--4--2h4p2--1---------1---------4--3--1---------3--4--3--1-|
D|---------2--------------------------------------------1-----1---------------------------------|
A|----------------------------------------------------------------------------------------------|
E|---4h5p4-------------------------------------------4-----------4-------------4----------------|
B|----------------------------------------------------------------------------------------------|

SECTION J:                               SECTION J.1: (play only when written so)
G|-----9--9-----9--9-----10-10----10-10-|--------------------|
D|--7--------7--------8--------8--------|--------------------|
A|*------------------------------------*|--8-----------------|
E|--------------------------------------|--------------------|
B|--------------------------------------|--------------------|
                                         

SECTION K:
G|----------------------------------------------------------------|
D|--7-----7-x-x-x------------------8-----8-x-x-x------------------|
A|-----------------7----7-x-x-x--------------------8-----8-x-x-x--|
E|----------------------------------------------------------------|
B|----------------------------------------------------------------|

G|------------------------------------------------------------------
D|---7-----7-x-x-x-----------------8------8-x-x-x-------------------
A|------------------7----7-x-x-x--------------------8-----8-x-x-x---
E|------------------------------------------------------------------
B|------------------------------------------------------------------

G|----------------------------------------------------------------|
D|--7-----7-x-x-x-----------------8-----8--x-x-x------------------|
A|-----------------7----7-x-x-x--------------------8-----8-x-x-x--|
E|----------------------------------------------------------------|
B|----------------------------------------------------------------|

                                                                     
G|------------------------------------------------------------------|
D|---7-----7-x-x-x-----------------8-----8-x-x--x-------------------|
A|------------------7----7-x-x-x--------------------8-----8----8----|
E|------------------------------------------------------------------|
B|------------------------------------------------------------------|

repeat SECTION J: + J.1:
repeat SECTION E:

G|------------------------------------------------------------|
D|------------------------------------------------------------|
A|-----------------------------------------------------------*|
E|--3-3-0---0--0---3-3-0---0--0--3-3-0--3-3-0--3-3-0---0--0---|
B|------------------------------------------------------------|

G|---------------------------------------------|
D|--------------------------------/--3---------|
A|*--------------------------------------------|
E|---3--------------2--------------------------|
B|---------------------------------------------|

SECTION N:
G|------------------------------------------------------------|
D|------------------------------------------------------------|
A|-----------------------------------------------------------*|
E|--3-3-0---0--0--3-3-0---0--0--3-3-0--3-3-0---3-3-0---0--0---|
B|------------------------------------------------------------|

G|--------------------------------------------|
D|--------------------------------------------|
A|*------------------------------/------------|
E|---3--------------2------------/--8---------|
B|--------------------------------------------|
                                                               
G|----------------------------------------------------------|
D|----------------------------------------------------------|
A|---------------------------------------------------------*|
E|-3-3-0---0--0--3-3-0---0--0--3-3-0--3-3-0--3-3-0---0--0---|
B|----------------------------------------------------------|

SECTION O: 
G|-------------------------------------------------|
D|-------------------------------------------------|
A|*------------------------------------------------|
E|---0---------------2/-3---2---------5/-7---6-----|
B|-------------------------------------------------|

END: 
G|------------------------------------------------------------|
D|----------------------------------8\------------------------|
A|-----6-5h6---------------------8-----8---------------------*|
E|-5h6-------5h6p5-7---6--6-6-6-------------------------------|
B|------------------------------------------6-----------------|

G|--------------------------------------------------|
D|--------------------------------------------------|
A|------------------------------/7--6---------------|
E|---0-----0--0-------2/-3---2---------7--6---------|
B|-----------------------------------------------6--|

G|---------------------------------------------------
D|---------------------------------------------------
A|-------------6/7-----6/7--7-------------7----------
E|--0------6/7-----6/7-----------5/7---7------7--6/7-
B|---------------------------------------------------

G|----------------------------------------------|
D|----------------------------------------------|
A|-6h7-6h7-6h7-6h7-6h7-/7-/7-/7-/7--------7-/-3-|
E|----------------------------------------------|
B|----------------------------------------------|

G|------------------------------------------------*|
D|------------------------------------------------*|
A|------1------------1-------1-------1------------*|
E|-0--------0-0--0-------0-------0----------------*|
B|------------------------------------------------*|
Comments