Atheist - And The Psychic Saw Chords & Tabs

 

And The Psychic Saw Chords & Tabs

Atheist Chords & Tabs

Version: 1 Type: Bass Tab 0 ratings
1 star 2 stars 3 stars 4 stars 5 stars
comments

And The Psychic Saw Bass Tab

   
================================================================================
         Title : And The Psychic Saw
        Artist : Atheist
         Album : Unquestionable Presence
Transcribed by : J. Litvak, converted and corrected by : Coypu
================================================================================

SECTION A: 
|-----------------------------------------------------------------|
|-----------------------------------------------------------------|
|---5--5-3-5--5-3-5--5-3-5-3-5-3---8--8-7-8--8-7-8--8-7-8-7-8-7---|
|-----------------------------------------------------------------|

|---------------------------------------------------------------------------------------------|
|-7--7-5-7--7-5-7--7-5-7-5-7-5----------------------------------------------------------------|
|---------------------------------------------------------------------------------------------|
|---------------------------------1------2------3-------1------2------3------1------2------3--|

SECTION B: 
|-----------------------------------------------------------------------|
|-----------------------------------------------------------------------|
|--------------5----------5-----------5-----5-----4----------5-------5--|
|----------5-----------5-----------5-----5-----5----------5-------5-----|

SECTION C: 
|---0--7--7------0--7--7------0--7--7------0--7--7------|
|------------8------------8------------8------------8---|
|*------------------------------------------------------|
|-------------------------------------------------------|
                              
|-0--6--6------0--6--6------0--6--6------0--6--6------|
|----------8------------8------------8------------8---|
|----------------------------------------------------*|
|-----------------------------------------------------|

LEAD 1 RHYTHM SECTION C:

SECTION D:
|---------------------------------------------------------------------|
|---------------------------------------------------------------------|
|---------------------------------------------------------------------|
|-3-3-3-3-3-3-3-3--3-3-3-3-3-3-3-3--3-3-3-3-3-3-3-3--3-3-3-3-3-3-3-3--|

|-----------------------------------------------------------------|
|--7-7-7-7-7-7-7-7--7-7-7-7-7-7-7-7--7-7-7-7----------------------|
|-----------------------------------------------------------------|
|--------------------------------------------3-3-3-3/-------------|

|---------------------------------------------------------------------|
|---------------------------------------------------------------------|
|---------------------------------------------------------------------|
|-6-6-6-6-6-6-6-6--6-6-6-6-6-6-6-6--6-6-6-6-6-6-6-6--6-6-6-6-8-8-6-6--|
                                                   
|-------------------------------------------------------------|
|-------------------------------------------------------------|
|-------------------------------------------------------------|
|-5-5-5-5-5-5-5-5--5-5-5-5-5-5-5-5--5-5-5-5-3-3-3-3/----------|

SECTION E:
|-----------------------------------------------------|
|-----------------------------------------------------|
|-------------5----7--6-----------------5----7--6-----|
|-0--0--3--0-------------7--0--0--3--0-------------7--|

|----------------------------------------------------------------------|
|----------------------------------------------------------------------|
|--------------5----7---6-----------------5----7--6--------------------|
|--0--0--3--0--------------7--0--0--3--0-------------7----0------------|

|---------------------------------------------|
|---------------------------------------------|
|--3/--7------------------(7)-----------\-----|
|---------------------------------------------|
       
|-------------------------------------------------------|
|-------------------------------------------------------|
|--------------5----7---6-----------------5----7--6-----|
|--0--0--3--0--------------7--0--0--3--0-------------7--|
                                                        
|-------------------------------------------------------|
|-------------------------------------------------------|
|--------------5----7--6------------------5----7--6-----|
|--0--0--3--0-------------7--0--0--3---0-------------7--|

SECTION F:
|----------------------------------------------------|
|----------------------------------------------------|
|--------5-------7--6-------------5-------7--6-------|
|--3--0-----0----------7----3--0-----0----------7----|
                      
|----------------------------------------------------|
|----------------------------------------------------|
|----------------7--6---------------------7--6-------|
|--0--0--3--0----------7----0--0--3--0----------7----|
      
|----------------------------------------------------|
|----------------------------------------------------|
|--------5-------7--6-------------5-------7--6-------|
|--3--0-----0----------7----3--0-----0----------7----|

|---------------------------------------------------|
|---------------------------------------------------|
|--------5-------7--6--------------1-------1--3--4--|
|--3--0-----0----------7--0-------------------------|
   
SECTION G:
|------------------------------------------------------------|
|-6-5-6-8-6-5-6-5---5--6--5--6--5--6--8--6--5--6--5--5--7--8-|
|-----------------8------------------------------------------|
|------------------------------------------------------------|
  
|------------------------------------------------------------|
|-8-7-8-10-8-7-8-7----7--8--7--8--7--8--10--8--7--8--7-----6-|
|------------------10-----------------------------------9----|
|------------------------------------------------------------|

|------------------------------------------------------------|
|-7--7-6-7-9--7--6--7--6-----6--7--6--7--6--7--9--7--6--7--6-|
|-------------------------9----------------------------------|
|------------------------------------------------------------|
               
|------------------------------9---------------------------------------|
|---------9--10--9--10--9--10-----10--9--10--9--------(9)--\-----------|
|--/-12----------------------------------------------------------------|
|----------------------------------------------------------------------|

SECTION H:                                           
|----------------------------------------------------------------------|
|---------------------------------7-----------7---6--------------------|
|----------------------8------5-------7---8-----------8---7--5---------|
|----------------------------------------------------------------------|
[ Tab from: http://www.guitartabs.cc/tabs/a/atheist/and_the_psychic_saw_btab.html ]
|------7-6-4-------7-6-4-7-6-4------------------------------------------|
|------------7-6-4-------------7-6-4\--3------10--12--9--11------11-----|
|------------------------------------------------------------12------12-|
|------------------------------------------8----------------------------|
                                                                                                     
|------7-6-4-------7-6-4-7-6-4------------------------------|
|------------7-6-4-------------7-6-4\--2--------------------|
|-9\---------------------------------------------1----------|
|-----------------------------------------------------------|

SECTION I:
|------------------------------------------------6---6---6------|
|--5-4-----7-6---------------------5-4-----7-------5---4---4-3--|
|*-----5-4-----7-6-5-4-----------------5-4---5-7/--------------*|
|----------------------5-4-7-0-7-5------------------------------|

|-----------------------------------|
|-5---4---5---4---5---4---5---4-----|
|-----------------------------------|
|-----------------------------------|

SECTION J:
|-------------------------------------------------------------------|
|-------------------------------------------------------------------|
|---5--------------5------4-------------1---------1-----2-----3-----|
|-------------------------------5-----------------------------------|

|-----------------------------------------------------------------|
|-----------------------------------------------------------------|
|----------------------------------------------5------------------|
|--2-------------------2------2----1----0-------------------------|

|----------------------------------------------------------------------|
|----------------------------------------------------------------------|
|---0--0------------------1----------------------1-----2-----3---------|
|-----------4\-----1------------------------------------------------2--|

|----------------------------------------|
|----------------------------------------|
|----------------------------------------|
|-------------------2------2----1----0---|

|----------------------------------------------|
|----------------------------------------------|
|*----5---------------------------------------*|
|------------------------2-------2----1----0---|

SECTION L:
|----------------------------------------------------------------|
|----------------------------------------------------------------|
|--5--5-3-5--5-3-5--5-3-5-3-5-3---5--5-3-5--5-3-5--5-3-5-3-5-3---|
|----------------------------------------------------------------|

|------------------------------------------------------------------|
|------------------------------------------------------------------|
|-----------------------3-5-3-5-3---5--5-3-5--5-3-5--5-3-5-3-5-3---|
|---5--5-3-5--5-3-5--5---------------------------------------------|
                                                                                        
SECTION M:                                                        
|-----------10-----10----------------------------------------|
|----------------------7-------6-----6-----------------------|
|--5------------8-----------------6---------8---7------------|
|-----------------------------------------------------6---5--|

|---------------7----------------------7-|
|------10-9-7-9---------------10-9-7-9---|
|7-7-7------------7--7--7-7-7------------|
|----------------------------------------|

SECTION N: 
|--------------------------------------------------------------------------|
|--------------------------------------------------------------------------|
|-----------------5------------------------1----5---------------2-------1--|
|----------------------4--0-0-0-0-0-0-0-0------------4--0-0-0-0----0-0-----|
                                                  
|-----------------------------------------------------------|
|-----------------------------------------------------------|
|--5-----------------------1---5--------------2-------1-----|
|------4--0-0-0-0-0-0-0-0----------4--0-0-0-0----0-0------0-|

Add this section when appropriate to the section above
|----------------7-|
|-------10-9-7-9---|
|-7-7-7------------|
|------------------|

SECTION O:
|-----------------------------------------------------|
|-----------------------------------------------------|
|----------3------------1------------3------------1---|
|-0--2--3------0--2--3------0--2--3------0--2--3------|
                                                       
pause

|---2--2---1--------------------------------------------|
|*-------------2--1------0--2---4---0------------------*|
|*-----------------------------------------------------*|
|--------------------4-----------------5--4---0--2--3---|

|--------------------------------------|
|--------------------------------------|
|--------------------------------------|
|--0--2--3---0--2--3-------------------|

SECTION P: 

pause

|-0--7--7------0--7--7------0--7--7------0--7--7--------0--6--6------0-|
|----------8------------8------------8------------8--------------8-----|
|----------------------------------------------------------------------|
|----------------------------------------------------------------------|

|--6--6------0--6--6------0--6--6--------0--10--10-------0--10--10-----|
|--------8------------8------------8----------------11--------------11-|
|----------------------------------------------------------------------|
|----------------------------------------------------------------------|

|---0--10--10-------0--10--10---------0--9--9-------0--9--9-------0--9-|
|--------------11--------------11--------------11------------11--------|
|----------------------------------------------------------------------|
|----------------------------------------------------------------------|
                                                                 
|--9-------0--9--9-------|
|-----11------------11---|
|------------------------|
|------------------------|

SECTION Q:
|---------------------------------------------------------------------|
|---------------------------------------------------------------------|
|---------------------------------------------------------------------|
|-2-2-2-2-2-2-2-2--2-2-2-2-2-2-2-2--2-2-2-2-2-2-2-2--2-2-2-2-2-2-2-2--|

|---------------------------------------------------------------------|
|---------------------------------------------------------------------|
|---------------------------------------------------------------------|
|-1-1-1-1-1-1-1-1--1-1-1-1-1-1-1-1--1-1-1-1-1-1-1-1--1-1-1-1-1-1-1-1--|

|---------------------------------------------------------------------------|
|-0-------------------------------------------------------------------------|
|------9-9-9-9-9-9-9-9--9-9-9-9-9-9-9-9--9-9-9-9-9-9-9-9--9-9-9-9-11-11-9-9-|
|---------------------------------------------------------------------------|

|---------------------------------------------------------------------|
|---------------------------------------------------------------------|
|--8-8-8-8-8-8-8-8--8-8-8-8-8-8-8-8--5-5-5-5-5-5-5-5--4-4-4-4-2-2-0-0-|
|---------------------------------------------------------------------|

END:
|----------------------------------------------|
|----------------------------------------------|
|*---^0---------------------------------------*|
|------------------------2------2----1----0----|
Comments