Ataris - Your Boyfriend Sucks Chords & Tabs

 

Your Boyfriend Sucks Chords & Tabs

Ataris Chords & Tabs

Version: 1 Type: Tab 0 ratings
1 star 2 stars 3 stars 4 stars 5 stars
comments

Your Boyfriend Sucks Tab

The Ataris - Your Boyfriend Sucks
Intro:(Acoustic)
e|--------------------------------------------------------------------|
B|--------------------------------------------------------------------|
G|--------------------6--------------4--------------------------------|
D|2-------------------6--------------4---------------4---6-----7------|
A|2-------------------4--------------2---------------4---6-----7------|
E|0--------------------------------------------------2---4-----5------|
Your better off without him, don't call him, he's breaking your heart
Verse:
e|--------------------------------------------------------------------|
B|--------------------------------------------------------------------|
G|-------------------------6-----------------4------------------------|
D|2------------------------6-----------------4------------------------|
A|2------------------------4-----------------2------------------------|
E|0-------------------------------------------------------------------|
He's hanging with your bestfriend and your waiting there
e|--------------------------------------------------------------------|
B|--------------------------------------------------------------------|
G|--------------------------------------------------------------------|
D|-------4--6--7------------------------------------------------------|
A|-------4--6--7------------------------------------------------------|
E|-------2--4--5------------------------------------------------------|
It's tearing you apart.
e|--------------------------------------------------------------------|
B|--------------------------------------------------------------------|
G|------------------6--------------4----------------------------------|
D|2-----------------6--------------4----------------------------------|
A|2-----------------4--------------2----------------------------------|
E|0-------------------------------------------------------------------|
He lied to you a thousand times, when I was there,
e|--------------------------------------------------------------------|
B|--------------------------------------------------------------------|
G|--------------------------------------------------------------------|
D|----4--6--7---------------------------------------------------------|
A|----4--6--7---------------------------------------------------------|
E|----2--4--5---------------------------------------------------------|
He kept you waiting.
Chorus: 
e|--------------------------------------------------------------------|
B|--------------------------------------------------------------------|
G|--------------------------------------------------------------------|
D|4-------------------6---------------------7-------------------------|
A|4-------------------6---------------------7-------------------------|
E|2-------------------4---------------------5-------------------------|
And I'm still here, waiting there,        to catch you if you fall.
e|--------------------------------------------------------------------|
B|--------------------------------------------------------------------|
G|--------------------------------4----8~-----------------------------|
D|4------------6------------------4----8~-----------------------------|
A|4------------6------------------2----6~-----------------------------|
E|2------------4------------------------------------------------------|
I don't know why I care so much,  when I shouldn't care at all.
Solo: 
e|--------------------------------------------------------------------|
B|--------------------------------------------------------------------|
G|----------------6-6-6-6-6-6-6-6-4-4-4-4-4-4-4-4---------------------|
D|2-2-2-2-2-2-2-2-6-6-6-6-6-6-6-6-4-4-4-4-4-4-4-4-4-6-7--x2-----------|
A|2-2-2-2-2-2-2-2-4-4-4-4-4-4-4-4-2-2-2-2-2-2-2-2-4-6-7---------------|
E|0-0-0-0-0-0-0-0---------------------------------2-4-5---------------|

e|--------------------------------------------------------------------|
B|--------------------------------------------------------------------|
G|-13-13-13-13-13-13-13-13-9-8-8-8-9-8-8-8-8-8-8-11-13-9--------------|
D|--x--x--x--x--x--x--x--x-x-x-x-x-x-x-x-x-x-x-x--x--x-x--------------|
A|-11-11-11-11-11-11-11-11-7-6-6-6-7-6-6-6-6-6-6--9-11-7--------------|
E|--------------------------------------------------------------------|
Verse 2:
e|--------------------------------------------------------------------|
B|--------------------------------------------------------------------|
G|-------------------------6---------4--------------------------------|
D|2------------------------6---------4-----------------4--6--7--------|
A|2------------------------4---------2-----------------4--6--7--------|
E|0----------------------------------------------------2--4--5--------|
Finally got the nerve to tell you, how much you mean to me.
e|--------------------------------------------------------------------|
B|--------------------------------------------------------------------|
G|-----------------------6---------------4----------------------------|
D|2----------------------6---------------4----------------------------|
A|2----------------------4---------------2----------------------------|
E|0-------------------------------------------------------------------|
You said that I was your bestfriend, a real sweet guy,
e|--------------------------------------------------------------------|
B|--------------------------------------------------------------------|
G|--------------------------------------------------------------------|
D|------------4--6--7-------------------------------------------------|
A|------------4--6--7-------------------------------------------------|
E|------------2--4--5-------------------------------------------------|
But that's all I'd ever be.

Repeat Chorus
 
Outro: 
e|--------------------------------------------------------------------|
B|--------------------------------------------------------------------|
G|-------------------------6-6-6-4-4-4-2~----------6-6-6-4-4-4-2~-----|
D|--2~---2~---------2~-----6-6-6-4-4-4-2~---2~-----6-6-6-4-4-4-2~-----|
A|--2~---2~---------2~-----4-4-4-2-2-2-0~---2~-----4-4-4-2-2-2-0~-----|
E|--0~---0~---------0~----------------------0~------------------------|
[ Tab from: http://www.guitartabs.cc/tabs/a/ataris/your_boyfriend_sucks_tab.html ]
Comments