Ataris - Unopened Letter To The World Chords & Tabs

 

Unopened Letter To The World Chords & Tabs

Ataris Chords & Tabs

Version: 1 Type: Bass Tab 0 ratings
1 star 2 stars 3 stars 4 stars 5 stars
comments

Unopened Letter To The World Bass Tab

Unopened Letter To The World by the Ataris (bass tabs)
tabbed by: Cate Brown


Intro        1x                              2x                    Only 2end time
G -----------------------------|-----------------------------------|-------|
D -----------------------------|-----------------------------------|----57-|
A ----------------55555555-----|---------------------------5-5(16x)|-578---|
E -4444-222222222--------------|-5-5(16x)-4-4(16x)-2-2(16x)--------|-------|

Verse
G ----------------------------------------------|
D ----------------------------------------------| 2x
A ----------------------------------5-55555555--| 
E -5-55555555-4-44444444-2-22222222-------------|
[ Tab from: http://www.guitartabs.cc/tabs/a/ataris/unopened_letter_to_the_world_btab.html ]
Chorus
G ------------------------------------------------------------------|
D ------------------------------------------------------------------|
A -10\2(16x)-5(16x)--------------------------------2(16x)-55555555--|
E ----------------55555555444444442222222222222222------------------|

verse 2x
Chorus

Bridge                                                       2end time
G -----------------------------------------------------------|------|
D -----------------------------------------------------------|------| 2x
A -----------------5-55555555-5-5555555-5-5555555-5-55555555-|-10\2-|
E -222222222-5(16x)------------------------------------------|------|
Wile sliding back to the 2 keep pulling the string.

Chorus

End
G ---------------------|
D ---------------------|
A ---------------------|
E -5555555544444444-2--|




Comments