Ataris - The Saddest Song Chords & Tabs

 

The Saddest Song Chords & Tabs

Ataris Chords & Tabs

Version: 3 Type: Tab 0 ratings
1 star 2 stars 3 stars 4 stars 5 stars
comments

The Saddest Song Tab

Song: The Saddest Song
Artist: The Ataris
Album: So Long, Astoria
Tuning: Dropped D

[Intro]

E------------------------------------------|
B------------------------------------------|
G------------------------------------------|
D---7-8-7----------7-8-7-----10-8---5-7-8--|
A---------8-5-10-8-------8-5---------------|
E------------------------------------------|

E----------------------------------|
B----------------------------------|
G---7-8-7--------------------------|
D---------8-5-10-8-----------------|
A--------------------3-5-4---------|
E----------------------------------|

[Verse/Chorus]

e|-------------------------------|
B|-------------------------------|
G|-------------------------------|
D|---8-------5-------3-------1---|
A|---8-------5-------3-------1---|
D|---8-------5-------3-------1---|

[Verse]

Only two more days, until your birthday
Yesterday was mine
You'll be turning five
I know what it's like, growing up without your father in your life
So I pretend, I'm doing all I can
And I hope someday you'll find it in your heart

e|-------------------------------|
B|-------------------------------|
G|-------------------------------|
D|---5---3---8---1---5---3---1---|
A|---5---3---8---1---5---3---1---|
D|---5---3---8---1---5---3---1---|

[Pre-Chorus]

To understand
Why I'm not around
And forgive me for not being in your life

e|-------------------------------|
B|-------------------------------|
G|-------------------------------|
D|---8-------5-------3-------1---|
A|---8-------5-------3-------1---|
D|---8-------5-------3-------1---|

[Chorus]
[ Tab from: http://www.guitartabs.cc/tabs/a/ataris/the_saddest_song_tab_ver_3.html ]
I remember waiting
For you to come
Remember waiting
For you to call
Remember waiting there to find nothing at all
I remember waiting
For you to come
Remember waiting
For you to call
Waiting there to find nothing at all

[Solo/Intro]

E------------------------------------------|
B------------------------------------------|
G------------------------------------------|
D---7-8-7----------7-8-7-----10-8---5-7-8--|
A---------8-5-10-8-------8-5---------------|
E------------------------------------------|

E----------------------------------|
B----------------------------------|
G---7-8-7--------------------------|
D---------8-5-10-8-----------------|
A--------------------3-5-4---------|
E----------------------------------|

[Verse]

maybe someday
you really get to know me
not just the letters read to you
I pray I get the chance
To make it up to you
We got a lot of catching up to do

e|-------------------------------|
B|-------------------------------|
G|-------------------------------|
D|---5---3---8---1---5---3---1---|
A|---5---3---8---1---5---3---1---|
D|---5---3---8---1---5---3---1---| x2

[Pre-Chorus]

So I pretend, I'm doing all I can
And hope someday you'll find it in your heart
To understand
Why I'm not around
And forgive me for not being in your life

[Chorus]

I remember waiting
For you to come
Remember waiting
For you to call
Remember waiting there to find nothing at all
I remember waiting
For you to come
Remember waiting
For you to call
Waiting there to find nothing at all

e|-----------------------------------|
B|-----------------------------------|
G|-----------------------------------|
D|---8-------5-------3-------1-----8~|
A|---8-------5-------3-------1-----8~|
D|---8-------5-------3-------1-----8~|

[End]

Forgive me!
I'm so sorry!
I will make it up to you....
Comments