Ataris - The Saddest Song Chords & Tabs

 

The Saddest Song Chords & Tabs

Ataris Chords & Tabs

Version: 3 Type: Chords

The Saddest Song Chords

   
The Saddest Song
The Ataris

Tuning: Whole Step Down (DGCFAD)

 

(Intro) 

D|----------------------------------------0-1-0--------------------------|
A|--0-1-0---------0-----0-1-0-----3-1---1-------1---3-1------------------|
F|--------0---2-0---0---------0-------2-----------2---------------0/2-0--|
C|----------2---------0---------2-----------------------0-2-----3--------|
G|------------------------------------------------------------3----------|
D|----------------------------------------------------------1------------|

    C   Am   G   F

D|--0---0----3---1--|
A|--1---1----3---1--|
F|--0---2----0---2--|
C|--2---2----0---3--|
G|--3---0----2---3--|
D|--x---x----3---1--|


(Verse) 
C               Am                        
  Only two more days, until your
G               F
birthday, yesterday was mine
C                   Am                        
  You値l be turning five I know what it痴
G                            F
like growing up without your father in your life

[ Tab from: http://www.guitartabs.cc/tabs/a/ataris/the_saddest_song_crd_ver_3.html ]
(Pre-Chorus)
Am      G         C           F
So I pretend, I知 doing all I can
      Am                  G               F
And I hope someday you値l find it in your heart
Am       G        C       F
To understand why I知 not around
Am                     G             F
And forgive me for not being in your life


(Chorus)
           C
I remember waiting for you to come
         Am
Remember waiting for you to call
         G                                F
Remember waiting there to find nothing at all
           C
I remember waiting for you to come
         Am
Remember waiting for you to call
G                                F
Waiting there to find nothing at all

 

(Repeat Intro)



(Verse)
C             Am   
    Maybe someday you値l really get to
G                              F
know me, not just from letters read to you
C                   Am
   I pray I get the chance to make it up
G                       F
to you, we got a lot of catching up to do



(Repeat Pre-Chorus and Chorus)



(Outro)
           C
I remember waiting for you to come
Am                            G   F
    Waiting for you to call  
           C
I remember waiting for you to come
Am                            G
    Waiting for you to call
F                      C
I will make it up to you