Ataris - The Saddest Song Chords & Tabs

 

The Saddest Song Chords & Tabs

Ataris Chords & Tabs

Version: 2 Type: Chords 0 ratings
1 star 2 stars 3 stars 4 stars 5 stars
comments

The Saddest Song Chords

   
-------------------------------------------------------------------------------
			     The Saddest Song - The Ataris
-------------------------------------------------------------------------------
Tabbed by: beeefstu4

This is the perfect way to play it

Tuning: Standard or down half step both sound ok
[ Tab from: http://www.guitartabs.cc/tabs/a/ataris/the_saddest_song_crd_ver_2.html ]
     C         Am         G         Fm
e|---0----------0---------3----------1-----|
B|---1----------1---------0----------1-----|
G|---0----------2---------0----------2-----|
D|---2----------2---------0----------3-----|
A|---3----------0---------2----------3-----|
E|---X----------X---------3----------X-----|



Intro and Verses and Outro

  C Am G Fm (at times palm mute...you'll know when)

Chorus

  Am        G      C          Fm
  So i pretend I'm doin all i can
           Am               G                C
  And i hope someday you'll find it in your heart
  Am        G        C         Fm
  To understand Why i'm not around
           Am             G             C
  And forgive me for Not being in your life
Comments