Ataris - The Hero Dies In This One Chords & Tabs

 

The Hero Dies In This One Chords & Tabs

Ataris Chords & Tabs

Version: 1 Type: Tab 0 ratings
1 star 2 stars 3 stars 4 stars 5 stars
comments

The Hero Dies In This One Tab

   
Band: Thhe Ataris
Song: the Hero Dies in this One
Album: So Long, Astoria (track #8)
Tabed by: Greg M. (and Daniel Becker)

This is my favorite song off the Ataria new CD!  I can't take full credit for
this tab, I got the basic from Daniel Becker (dietoskate@gmx.net) at fretplay.com.  I realized
the tab was a bit off... so I fixed it and posted it here. :) Any questions, comments,
or anything, IM me at AudioBoxer829.
Enjoy.

Intro: 
e------------------|
B------------------|
G--7---7---6---6---|
D----7---7---7---7-|
A------------------|
E------------------|

Verse: (palm muted) 
e---------- -------------------------------------------------------|
B------------------------------------------------------------------|
G--7-7-7-7-7-7-7-7-7-7-7-7-7-7-7-7---------------------------------|
D--7-7-7-7-7-7-7-7-7-7-7-7-7-7-7-7-5-5-5-5-5-5-5-5-5-5-5-5-5-5-5-5-|
A--5-5-5-5-5-5-5-5-5-5-5-5-5-5-5-5-5-5-5-5-5-5-5-5-5-5-5-5-5-5-5-5-|
E----------------------------------3-3-3-3-3-3-3-3-3-3-3-3-3-3-3-3-|


Prechorus:
e-------------------------------------|
B-------------------------------------|
G------------------7~-----------------|
D--7~--------------5~--------------7~-| 
A--7~--------------5~--------------5~-| 
E--5~------------------------------5~-| 


Chorus: 
e------------------------------------------------------------------| 
B------------------------------------------------------------------| 
G----------------------------------7-7-7-7-7-7-7-7-----------------|
D--2-2-2-2-2-2-2-2-5-5-5-5-5-5-5-5-7-7-7-7-7-7-7-7-7-7-7-7-7-7-7-7-|
A--2-2-2-2-2-2-2-2-5-5-5-5-5-5-5-5-5-5-5-5-5-5-5-5-7-7-7-7-7-7-7-7-|
E--0-0-0-0-0-0-0-0-3-3-3-3-3-3-3-3-----------------5-5-5-5-5-5-5-5-|

e------------------------------------------------------------------| 
B------------------------------------------------------------------| 
G--4-4-4-4-4-4-4-4-----------------7-7-7-7-7-7-7-7-7-7-7-7-7-7-7-7-| 
D--4-4-4-4-4-4-4-4-5-5-5-5-5-5-5-5-7-7-7-7-7-7-7-7-7-7-7-7-7-7-7-7-|
A--2-2-2-2-2-2-2-2-5-5-5-5-5-5-5-5-5-5-5-5-5-5-5-5-5-5-5-5-5-5-5-5-|
E------------------3-3-3-3-3-3-3-3---------------------------------|
[ Tab from: http://www.guitartabs.cc/tabs/a/ataris/the_hero_dies_in_this_one_tab.html ]
e------------------------------------------------------------------|
B------------------------------------------------------------------|
G----------------------------------7-7-7-7-7-7-7-7-----------------|
D--2-2-2-2-2-2-2-2-5-5-5-5-5-5-5-5-7-7-7-7-7-7-7-7-7-7-7-7-7-7-7-7-|
A--2-2-2-2-2-2-2-2-5-5-5-5-5-5-5-5-5-5-5-5-5-5-5-5-7-7-7-7-7-7-7-7-|
E--0-0-0-0-0-0-0-0-3-3-3-3-3-3-3-3-----------------5-5-5-5-5-5-5-5-|

e--------------|
B--------------|
G-4-4-4-4-7----|
D-4-4-4-4-7-5~-|
A-2-2-2-2-5-5~-|
E-----------3~-|


Solo 
e-0-0-0-2-2-2-----------------0-0-0-2-2-2-----------------0-|
B-------------3-3-3-2-2-2-3-3-------------3-3-3-2-2-2-3-3---|
G-----------------------------------------------------------|
D-----------------------------------------------------------|
A-----------------------------------------------------------|
E-----------------------------------------------------------|

e-3-3-3-2-2-2-------0-0-0-0-0-3-3-3-2-2-2-----------------|
B-------------3-3-3-----------------------3-3-3-3-3-3-3-3-|
G---------------------------------------------------------|
D---------------------------------------------------------| x2
A---------------------------------------------------------|
E---------------------------------------------------------|

Outro
e------------------------------------------------------------------|
B------------------------------------------------------------------|
G--7-7-7-7-7-7-7-7-7-7-7-7-7-7-7-7-4-4-4-4-4-4-4-4-4-4-4-4-4-4-4-4-|
D--7-7-7-7-7-7-7-7-7-7-7-7-7-7-7-7-4-4-4-4-4-4-4-4-4-4-4-4-4-4-4-4-|
A--5-5-5-5-5-5-5-5-5-5-5-5-5-5-5-5-2-2-2-2-2-2-2-2-2-2-2-2-2-2-2-2-|
E------------------------------------------------------------------|

e------------------------------------------------------------------|
B------------------------------------------------------------------|
G------------------------------------------------------------------|
D--2-2-2-2-2-2-2-2-2-2-2-2-2-2-2-2-5-5-5-5-5-5-5-5-5-5-5-5-5-5-5-5-|
A--2-2-2-2-2-2-2-2-2-2-2-2-2-2-2-2-5-5-5-5-5-5-5-5-5-5-5-5-5-5-5-5-|
E--0-0-0-0-0-0-0-0-0-0-0-0-0-0-0-0-3-3-3-3-3-3-3-3-3-3-3-3-3-3-3-3-|

e------------------------------------------------------------------|
B------------------------------------------------------------------|
G--7-7-7-7-7-7-7-7-7-7-7-7-7-7-7-7-4-4-4-4-4-4-4-4-4-4-4-4-4-4-4-4-|
D--7-7-7-7-7-7-7-7-7-7-7-7-7-7-7-7-4-4-4-4-4-4-4-4-4-4-4-4-4-4-4-4-|
A--5-5-5-5-5-5-5-5-5-5-5-5-5-5-5-5-2-2-2-2-2-2-2-2-2-2-2-2-2-2-2-2-|
E------------------------------------------------------------------|

e-------------15~-|
B-----------------|
G-----------------|
D--2-2-2~-5-5-----|
A--2-2-2~-5-5-----|
E--0-0-0~-3-3-----|

Order:
Intro     x2
Verse     x4
Prechorus x1
Verse     x4
Prechorus x1
Chorus    x1
Intro     x1
Verse     x4
Prechorus x1
Chorus    x1
Intro     x4
Solo      x1
Outro     x1
Comments