Ataris - The Boys Of Summer Chords & Tabs

 

The Boys Of Summer Chords & Tabs

Ataris Chords & Tabs

Version: 5 Type: Tab 0 ratings
1 star 2 stars 3 stars 4 stars 5 stars
comments

The Boys Of Summer Tab

Intro:

e|-------------------------------------------------------------------------
B|-------------------------------------------------------------------------|
G|------8------8------4-------6-------4------------------------------------|
D|------8------8------4-------6-------4------------------------------------|
A|------6------6------2-------4-------2------------------------------------|
E|-------------------------------------------------------------------------|

Verse:

e|-------------------------------------------------------------------------|
B|-------------------------------------------------------------------------|
G|------8-----4------6-----4-----------------------------------------------|
D|------8-----4------6-----4-----------------------------------------------|
A|------6-----2------4-----2-----------------------------------------------|
E|-------------------------------------------------------------------------|

Chorus:

[ Tab from: http://www.guitartabs.cc/tabs/a/ataris/the_boys_of_summer_tab_ver_5.html ]
e|-------------------------------------------------------------------------|
B|-------------------------------------------------------------------------|
G|------------6------6-----4-----------6------6-----4----------------------|
D|-------4----6------6-----4------4----6------6-----4----------------------|
A|-------4----4------4-----2------4----4------4-----2----------------------|
E|-------2------------------------2----------------------------------------|


Solo:
 
Lead Guitar

e|-----------------------|
B|------8--7-------------|
G|-------------7---------|
D|-----------------------|
A|-----------------------|
E|-----------------------|


2nd Guitar


e|------------------------------------------------------|
B|------------------------------------------------------|
G|------------8------4-------6-------4------------------|
D|------------8------4-------6-------4------------------|
A|------------6------2-------4-------2------------------|
E|------------------------------------------------------|
Comments