Ataris - The Boys Of Summer Chords & Tabs

 

The Boys Of Summer Chords & Tabs

Ataris Chords & Tabs

Version: 4 Type: Tab 0 ratings
1 star 2 stars 3 stars 4 stars 5 stars
comments

The Boys Of Summer Tab

   
-------------------------------------------------------------------------------
                    The Ataris_-_The Boys Of Summer (v2.5)
-------------------------------------------------------------------------------
Tabbed by: RaZoRb0|z
Email: razorb0iz@hotmail.com

Tuning: Standard (For those whose voices are not that spectacular to reach that high
pitch in the chorus, tune it down by quarter or half step.)

(PLEASE read read-me before playing =])

Version 2.5  Erh...Quite a few people said that my tab is confusing, so I checked it                      
              over...And found that a lot of my pull offs were written as hammer ons.
              Also, removed the pickscrapes where I realized they didnt use them 0.o
              And I made the gaps between sections bigger. Noticed that the Main Riff
              For guitar 2 was probably the one causing confusion, so redid it.  =)             
              (26th July 07)
Version 2.2 - Nothin' much has changed... 0.o
Version 2.1  Changed readme portion slightly. Lyrics might be added in a months           
              time.28th December 2005
Version 2.0 - Finally managed to perfect(as much as i can hear...)the midi file for
		this song...e-mail me if you want it.10th May 2005
Version 1.9 - Made a small correction in Guitar 3 for the Bridge.8th May 2005
Version 1.8 - Made corrections here and there,and added to the read-me.6th May 2005
Version 1.7 - Modified the solo abit after listening to it again.10th September
              2004
Version 1.6 - Yes...Thnx again to matt van leeuwen.After listening very closely
              again using earphones,I've heard what he's corrected me.So it's
              down properly now. 11th August 2004
Version 1.5 - Thnx to matt van leeuwen for correcting the last line of the song
              for guitar 4. I personally still haven't re-listened to that part
              ...school's just started... anybody else care to comment?
              25th July 2004
Version 1.4 - Found out that Hold Delay can be used in Guitar 4 solo as well.
              24th May 2004
Version 1.3 - corrected mistake in Guitar 4 solo.(Thnx to skasolo)
	      18th May 2004
Version 1.2 - corrected some notes in Guitar 4 solo. 12th April 2004
Version 1.0 - First Release 12th April 2004

High paced song.I love it a lot and I performed it in my school during teachers' day.
This is as accurate as I can get it.It may get more accurate if you guys can give me
some help by adding your comments.Come back frequently because I update as soon as I
get comments.

The Ataris_-_The Boys Of Summer
All Electric Guitars (by right, Guitar 4 only plays during the parts stated, but
hey...this is what rocks all about right? =) Let Guitar 4 play whatever he wants
during the other parts. Haha. [your choice guys...])

Oh yeah by the way, the timings/strummings given here are general. I havent put in
the actual strumming/plucking patterns/times into the song because honestly it would
take too long to tab that out. So do make sure you listen to the song a few times to
get the hang of the kind of strumming you guys want to use aight? =)


Intro
Guitar 1
e----------------------------------------------------------------------------|
B----------------------------------------------------------------------------|
G--------------------8~------------------4~------------------6~--------------|
D--------------------8~----------------8\4~------------------6~--------------|
A-------------------6~----------------6\2~------------------4~--------------|
E----------------------------------------------------------------------------|
       Feedback		      pickscrape     Feedback
Guitar 2            (Main Riff begins)
e----------------------------------------------------------------------------|
B--------------------7-6--7-6--7-6--7-6--7-6--7-6--7-6--7-6--7-6--7-6--7-6---|
G-----------------------6----6----6----6----6----6----6----6----6----6----6--|
D----------------------------------------------------------------------------|
A---------------------------------------------------------------------------|
E----------------------------------------------------------------------------|
Guitar 3
e----------------------------------------------------------------------------|
B----------------------------------------------------------------------------|
G--8~----------------8~------------------4~------------------6~--------------|
D--8~----------------8~----------------8\4~------------------6~--------------|
A--6~----------------6~----------------6\2~------------------4~--------------|
E----------------------------------------------------------------------------|	
                              pickscrape					
Guitar 4
e----------------------------------------------------------------------------|
B----------------------------------------------------------------------------|
G-------------6--------------------------------------------------------------|
D---------6h8---8~-----------------------------------------------------------|
A----------------------------------------------------------------------------|
E----------------------------------------------------------------------------|


Intro (con't)
Guitar 1
e--------------------------------|
B--------------------------------|
G-------4~-----------------------|
D-----6\4~-------------4-4-4-4---|
A-----4\2~-------------2-2-2-2---|
E--------------------------------|
pickscrape
Guitar 2                       (Main Riff Ends)
e--------------------------------|
B--7-6--7-6--7-6--7-6--7-6--7-6--|
G-----6----6----6----6----6----6-|
D--------------------------------|
A--------------------------------|
E--------------------------------|
Guitar 3
e--------------------------------|
B--------------------------------|
G-------4~-----------------------|
D-----6\4~-------------4-4-4-4---|
A-----4\2~-------------2-2-2-2---|
E--------------------------------|
pickscrape


Verse
Guitar 1
e----------------------------------------------------------------------------|
B----------------------------------------------------------------------------|
G--8---8-8-8-8--8--8-8-8-8--4---4-4-4-4--4--4-4-4-4--6---6-6-6-6--6--6-6-6-6-|
D--8---8-8-8-8--8--8-8-8-8--4---4-4-4-4--4--4-4-4-4--6---6-6-6-6--6--6-6-6-6-|
A--6---6-6-6-6--6--6-6-6-6--2---2-2-2-2--2--2-2-2-2--4---4-4-4-4--4--4-4-4-4-|
E----------------------------------------------------------------------------|
Guitar 2 (repeat Main Riff as many times as necessary)
e----------------------------------------------------------------------------|
B--7-6--7-6--7-6--7-6--7-6--7-6--7-6--7-6--7-6--7-6--7-6-7-6-7-6--7-6--7-6-|
G-----6----6----6----6----6----6----6----6----6----6----6----6----6----6----6|
D----------------------------------------------------------------------------|
A---------------------------------------------------------------------------|
E----------------------------------------------------------------------------|
Guitar 3
e----------------------------------------------------------------------------|
B----------------------------------------------------------------------------|
G--8---8-8-8-8--8--8-8-8-8--4---4-4-4-4--4--4-4-4-4--6---6-6-6-6--6--6-6-6-6-|
D--8---8-8-8-8--8--8-8-8-8--4---4-4-4-4--4--4-4-4-4--6---6-6-6-6--6--6-6-6-6-|
A--6---6-6-6-6--6--6-6-6-6--2---2-2-2-2--2--2-2-2-2--4---4-4-4-4--4--4-4-4-4-|
E----------------------------------------------------------------------------|


Verse (con't)
Guitar 1
e---------------------------|
B---------------------------|
G--4---4-4-4-4-4-4-4-4-4-4-4|
D--4---4-4-4-4-4-4-4-4-4-4-4|			At the end of the verse,
A--2---2-2-2-2-2-2-2-2-2-2-2|			either Guitar 1 or 2
E---------------------------|			does a pickscrape (listen
Guitar 2                       (Main Riff Ends)	carefully to the song)
e--------------------------------|		Ill let you guys choose
B--7-6--7-6--7-6--7-6--7-6--7-6--|		which guitar does that =)
G-----6----6----6----6----6----6-|
D--------------------------------|
A--------------------------------|
E--------------------------------|
Guitar 3
e---------------------------|
B---------------------------|
G--4---4-4-4-4-4-4-4-4-4-4-4|
D--4---4-4-4-4-4-4-4-4-4-4-4|
A--2---2-2-2-2-2-2-2-2-2-2-2|
E---------------------------|


Chorus
Guitar 1
e----------------------------------------------------------------------------|
B----------------------------------------------------------------------------|
G-3~-----------------6~-------------------6~-------------------4~------------|
D-4~-----------------6~-----------6-6-6--66~---------6-6-6---6\4~------4-4-4-|
A-4~---------4-4-----4~-----------4-4-4--44~---------4-4-4---4\2~------2-2-2-|
E-2~---------2-2-------------------------------------------------------------|
Guitar 2
e----------------------------------------------------------------------------|
B--------7~---------------------------------------------------------2~-4~-0~-|
G----------6~--------------------6~----------------6~------------------------|
D------------6~--------------------6~----------------6~----------------------|
A------------------------------------4~----------------4~--------------------|
E----------------------------------------------------------------------------|
Guitar 3
e----------------------------------------------------------------------------|
B----------------------------------------------------------------------------|
G-3~-----------------6~-------------------6~-------------------4~------------|
D-4~-----------------6~-----------6-6-6--66~---------6-6-6---6\4~------4-4-4-|
A-4~---------4-4-----4~-----------4-4-4--44~---------4-4-4---4\2~------2-2-2-|
E-2~---------2-2-------------------------------------------------------------|


Repeat Chorus


1st Solo
Guitar 1
e----------------------------------------------------------------------------|
B----------------------------------------------------------------------------|
G--8---8-8-8-8--8--8-8-8-8--4---4-4-4-4--4--4-4-4-4--6---6-6-6-6--6--6-6-6-6-|
D--8---8-8-8-8--8--8-8-8-8--4---4-4-4-4--4--4-4-4-4--6---6-6-6-6--6--6-6-6-6-|
A--6---6-6-6-6--6--6-6-6-6--2---2-2-2-2--2--2-2-2-2--4---4-4-4-4--4--4-4-4-4-|
E----------------------------------------------------------------------------|
Guitar 2 (repeat Main Riff as many times as necessary)
e----------------------------------------------------------------------------|
B--7-6--7-6--7-6--7-6--7-6--7-6--7-6--7-6--7-6--7-6--7-6-7-6-7-6--7-6--7-6-|
G-----6----6----6----6----6----6----6----6----6----6----6----6----6----6----6|
D----------------------------------------------------------------------------|
A---------------------------------------------------------------------------|
E----------------------------------------------------------------------------|
Guitar 3
e----------------------------------------------------------------------------|
B----------------------------------------------------------------------------|
G--8-8-8-8-8-8-8-8-8-10-11-13-11\10/11--------------------------------------|
D--x-x-x-x-x-x-x-x-x--x--x--x---x--------------------------------------------|
A--6-6-6-6-6-6-6-6-6--8--9-11---9\8/9----------------------------------------|
E-------------------------------------------1h2/4-6\4------2-1------------1--|


1st Solo (con't)
Guitar 1
e---------------------------|
B---------------------------|
G--4---4-4-4-4--4--4-4-4-4--|
D--4---4-4-4-4--4--4-4-4-4--|
A--2---2-2-2-2--2--2-2-2-2--|
E---------------------------|
Guitar 2                       (Main Riff Ends)	
e--------------------------------|		
B--7-6--7-6--7-6--7-6--7-6--7-6--|		
G-----6----6----6----6----6----6-|
D--------------------------------|
A--------------------------------|
E--------------------------------|
Guitar 3
e--------------------------|
B--------------------------|
G--------------------------|
D--------------------------|
A---------------------6p4--|
E--2/4/6-----2\1/2---------|


Verse 2 
Guitar 1
e----------------------------------------------------------------------------|
B----------------------------------------------------------------------------|
G--8~-----------------------4~-----------------------------------------------|
D--8~---------------------8\4~----------------------4/6-6-6-6-6-6-6-6-6-6-6--|
A--6~---------------------6\2~----------------------2/4-4-4-4-4-4-4-4-4-4-4--|
E----------------------------------------------------------------------------|
                                                   pm - - - - - - - - - - -
Guitar 2 (repeat Main Riff as many times as necessary)
e----------------------------------------------------------------------------|
B--7-6--7-6--7-6--7-6--7-6--7-6--7-6--7-6--7-6--7-6--7-6-7-6-7-6--7-6--7-6-|
G-----6----6----6----6----6----6----6----6----6----6----6----6----6----6----6|
D----------------------------------------------------------------------------|
A---------------------------------------------------------------------------|
E----------------------------------------------------------------------------|
Guitar 3
e----------------------------------------------------------------------------|
B----------------------------------------------------------------------------|
G----------------------------------------------------------------------------|
D-8-8-8-8-8-8-8-8-8-8-8-8-8-4-4-4-4-4-4-4-4-4-4-4-4-4-6-6-6-6-6-6-6-6-6-6-6--|
A-6-6-6-6-6-6-6-6-6-6-6-6-8-2-2-2-2-2-2-2-2-2-2-2-2-2-4-4-4-4-4-4-4-4-4-4-4--|
E----------------------------------------------------------------------------|
pm- - - - - - - - - - - - - - - - - - - - - - - - - - - - - - - - - - - - -


Verse 2 (con't)
Guitar 1
e-----------------------------|
B-----------------------------|
G-----------------------------|
D-6-4-4-4-4-4-4-4-4-4-4-4-4-4-|
A-4-2-2-2-2-2-2-2-2-2-2-2-2-2-|
E-----------------------------|
pm- - - - - - - - grad. lift pm
Guitar 2                       (Main Riff Ends)	
e--------------------------------|		
B--7-6--7-6--7-6--7-6--7-6--7-6--|		
G-----6----6----6----6----6----6-|
D--------------------------------|
A--------------------------------|
E--------------------------------|
Guitar 3
e-----------------------------|
B-----------------------------|
G-----------------------------|
D-6-4-4-4-4-4-4-4-4-4-4-4-4-4-|
A-4-2-2-2-2-2-2-2-2-2-2-2-2-2-|
E-----------------------------|
pm- - - - - - - - grad. lift pm
Guitar 4
e-----------------------------|
B-----------------------------|
G-----------------------------|
D-6\4~------------------------|
A-4\2~------------------------|
E-----------------------------|
	Feedback


Chorus
Guitar 1
e----------------------------------------------------------------------------|
B----------------------------------------------------------------------------|
G-3~-----------------6~-------------------6~-------------------4~------------|
D-4~-----------------6~-----------6-6-6--66~---------6-6-6---6\4~------4-4-4-|
A-4~---------4-4-----4~-----------4-4-4--44~---------4-4-4---4\2~------2-2-2-|
E-2~---------2-2-------------------------------------------------------------|
Guitar 2
e----------------------------------------------------------------------------|
B--------7~---------------------------------------------------------2~-4~-0~-|
G----------6~--------------------6~----------------6~------------------------|
D------------6~--------------------6~----------------6~----------------------|
A------------------------------------4~----------------4~--------------------|
E----------------------------------------------------------------------------|
Guitar 3
e----------------------------------------------------------------------------|
B----------------------------------------------------------------------------|
G-3~-----------------6~-------------------6~-------------------4~------------|
D-4~-----------------6~-----------6-6-6--66~---------6-6-6---6\4~------4-4-4-|
A-4~---------4-4-----4~-----------4-4-4--44~---------4-4-4---4\2~------2-2-2-|
E-2~---------2-2-------------------------------------------------------------|


Repeat Chorus

[ Tab from: http://www.guitartabs.cc/tabs/a/ataris/the_boys_of_summer_tab_ver_4.html ]
Bridge
Guitar 1
e----------------------------------------------------------------------|
B----------------------------------------------------------------------|
G--4~--------------------------------4~--------------------------------|
D--4~--------------------------------4~--------------------------------|
A--2~--------------------------------2~/4\02~--------------------------|
E----------------------------------------------------------------------|
	feedback
Guitar 2 (Slight distortion,slight delay) Hard to tell whether they're
playing the notes like this,or only during the breaks between Guitar 4's
notes,or whether it's only 1 guitar playing both 2 and 4.I'll let you
guys decide.
e--------------------------------------------------------------------------|
B--------------------------------------------------------------------------|
G--------------------------------------------------------------------------|   2x
D------(optionally use-4-on this string)-----------------------------------|
A----9-9-9-9-9-9-9-9-9-9-9-9-9-9-9-9-9-9-9-9-------------------------------|
E--------------------------------------------------------------------------|
 | pm-   -   - - -  -   -  -  -      - -   -   - - -  -   -  -  - -   |
Guitar 3
e----------------------------------------------------------------------|
B----------------------------------------------------------------------|
G--4~--------------------------------4~--------------------------------|
D--4~--------------------------------4~--------------------------------|
A--2~--------------------------------2~--------------------------------|
E----------------------------------------------------------------------|
							pickscrape
Guitar 4 (Slight Distortion,slight delay)
e----------------------------------------------------------------------|
B----4-4-2-2-0--4-4-2-0--4-4-2-2-0--4--4-2-0--------------------------|
G----------------------------------------------------------------------|   2x
D----------------------------------------------------------------------|
A----------------------------------------------------------------------|
E----------------------------------------------------------------------|
 | pm-   -   - - -  -   -  -  -      - -   -   - - -  -   -  -  - -   |


2nd Solo (Not Exact Timing or Strumming shown) 
Guitar 1
e-------------------------------------------------------------------------------|
B-------------------------------------------------------------------------------|
G--8-8-8-8-8-8-8-10-11-13-11\10/11-10/11---------------------------------------|
D--x-x-x-x-x-x-x--x--x--x---xhxhx----x------------------------------------------|
A--6-6-6-6-6-6-6--8--9-11---9\8/9----8/9------------------------------------6\4-|
E------------------------------------------1h2/4/6\4---2-1--12/4/6---1h2h1-----|
Guitar 2 (repeat Main Riff as many times as necessary)
e----------------------------------------------------------------------------|
B--7-6--7-6--7-6--7-6--7-6--7-6--7-6--7-6--7-6--7-6--7-6-7-6-7-6--7-6--7-6-|
G-----6----6----6----6----6----6----6----6----6----6----6----6----6----6----6|
D----------------------------------------------------------------------------|
A---------------------------------------------------------------------------|
E----------------------------------------------------------------------------|
Guitar 3
e----------------------------------------------------------------------------|
B----------------------------------------------------------------------------|
G--8~----------------------4~--------------------6~---------------4~---------|
D--8~--------------------8\4~------------------4/6~-------------6\4~---------|
A--6~--------------------6\2~------------------2/4~-------------4\2~---------|
E----------------------------------------------------------------------------|
	       Pickscrape			    pickscrape
Guitar 4 (with Delay effect, Adjust your own Delay effect settings.)
e-----------------------------------------------------------------------------|
B--14\-------------------11\9-------------------------14\----------------11\9-|
G---------------------11------------------------------------------------------|
D-----------------------------------------------------------------------------|
A-----------------------------------------------------------------------------|
E-----------------------------------------------------------------------------|


2nd Solo (con't) 
e-----------------------------------------------------|
B-----------------------------------------------------|
G--15-15-15-15-15-15-16----15----13----11-11-11-11-11-|
D--x-x-x-x-x-x-x--x--x-----x-----x-----x--x--x--x-x--|
A--13-13-13-13-13-13-14----13----11----9--9--9--9--9--|
E-----------------------------------------------------|
Guitar 2 (repeat Main Riff as many times as necessary)
e--------------------------------------------------|
B-7-6--7-6--7-6--7-6--7-6--7-6-7-6-7-6--7-6--7-6-|
G----6----6----6----6----6----6----6----6----6----6|
D--------------------------------------------------|
A--------------------------------------------------|
E--------------------------------------------------|
Guitar 3
e--------------------------------------------------|
B--------------------------------------------------|
G--8--8-8-8---8-8-8-8--8--8-8-8-8--8-8-4---4-4-4-4-|
D--8--8-8-8---8-8-8-8--8--8-8-8-8--8-8-4---4-4-4-4-|
A--6--6-6-6---6-6-6-6--6--6-6-6-6--6-6-2---2-2-2-2-|
E--------------------------------------------------|
Guitar 4
e---------------------------------------|
B--14\-------------------11\9-----------|
G---------------------11----------------|
D---------------------------------------|
A---------------------------------------|
E---------------------------------------|


2nd Solo (con't)
Guitar 1
e----------------------------------------------------------------------|
B----------------------------------------------------------------------|
G-11-11-11-11-13-13-13-15-15-13-13-13-13-13-13-11-10-10-10-10-13-15---|
D-x--x--x--x--x--x--x--x--x--x-x-x-x--x--x--x--x--x--x--x-x-x----|
A-9--9--9--9--11-11-11-13-13-11-11-11-11-11-11-9--8--8--8--9--11-13---|
E----------------------------------------------------------------------|
Guitar 2 (repeat Main Riff as many times as necessary)
e----------------------------------------------------------------------------|
B--7-6--7-6--7-6--7-6--7-6--7-6--7-6--7-6--7-6--7-6--7-6-7-6-7-6--7-6--7-6-|
G-----6----6----6----6----6----6----6----6----6----6----6----6----6----6----6|
D----------------------------------------------------------------------------|
A---------------------------------------------------------------------------|
E----------------------------------------------------------------------------|
Guitar 3
e----------------------------------------------------------------------|
B----------------------------------------------------------------------|
G--4--4-4-4-4--4-6---6-6-6-6--6--6-6-6-6--4---4-4-4-4--4--4-4---4-4-4--|
D--4--4-4-4-4--4-6---6-6-6-6--6--6-6-6-6--4---4-4-4-4--4--4-4---4-4-4--|
A--2--2-2-2-2--2-4---4-4-4-4--4--4-4-4-4--2---2-2-2-2--2--2-2---2-2-2--|
E----------------------------------------------------------------------|
Guitar 4
e-------------------------------------------------------------------------|
B-----------------------------14\---------------------6h7p6---------------|
G----------------------------------------------------------8-8p6-6---6h8--|
D------------------------------------------------------------------8------|
A-------------------------------------------------------------------------|
E-------------------------------------------------------------------------|


2nd Solo (con't)
Guitar 1
e-------------------------------|
B-------------------------------|
G--18-18-18-18-18-18-18~--------|
D-x--x--x--x--x--x--x----------|
A-16-16-16-16-16-16-16~--------|
E-------------------------------|
Guitar 2 (repeat Main Riff as many times as necessary)
e-------------------------------|
B--7-6--7-6-7-6-7-6--7-6--7-6-|
G-----6----6----6----6----6----6|
D-------------------------------|
A-------------------------------|
E-------------------------------|
Guitar 3
e--------------------------|
B--------------------------|
G-4------------------------|
D-4------4-4-4-4-4-4-4-4---|
A-2------2-2-2-2-2-2-2-2---|
E--------------------------|
Guitar 4
e--------------------------|
B------------7---7h9/11~---|
G-----8-8-8---8------------|
D--------------------------|
A--------------------------|
E--------------------------|


Verse 3
Guitar 1
e----------------------------------------------------------------------------|
B----------------------------------------------------------------------------|
G---------------------------4~-----------------------------------------------|
D-------------------------8\4~----------------------4/6-6-6-6-6-6-6-6-6-6-6--|
A-------------------------6\2~----------------------2/4-4-4-4-4-4-4-4-4-4-4--|
E----------------------------------------------------------------------------|
                                                   pm - - - - - - - - - - -
Guitar 3
e----------------------------------------------------------------------------|
B----------------------------------------------------------------------------|
G--8~-----------------------4~-----------------------------------------------|
D--8~---------------------8\4~----------------------4/6-6-6-6-6-6-6-6-6-6-6--|
A--6~---------------------6\2~----------------------2/4-4-4-4-4-4-4-4-4-4-4--|
E----------------------------------------------------------------------------|
                                                   pm - - - - - - - - - - -


Verse 3 (con`t)
Guitar 1
e---------------------------------|
B---------------------------------|
G-----------------------------4x--|
D-6-4-4-4-4-4-4-4-4-4-4-4-4-4-4x--| - Palmmute
A-4-2-2-2-2-2-2-2-2-2-2-2-2-2-2x--|
E---------------------------------|
pm- - - - - - - - grad. lift pm
Guitar 3
e---------------------------------|
B---------------------------------|
G-----------------------------4x--|
D-6-4-4-4-4-4-4-4-4-4-4-4-4-4-4x--| - Palmmute
A-4-2-2-2-2-2-2-2-2-2-2-2-2-2-2x--|
E---------------------------------|
pm- - - - - - - - grad. lift pm


Chorus
Guitar 1
e----------------------------------------------------------------------------|
B----------------------------------------------------------------------------|
G-3~-----------------6~-------------------6~-------------------4~------------|
D-4~-----------------6~-----------6-6-6--66~---------6-6-6---6\4~------4-4-4-|
A-4~---------4-4-----4~-----------4-4-4--44~---------4-4-4---4\2~------2-2-2-|
E-2~---------2-2-------------------------------------------------------------|
Guitar 2
e----------------------------------------------------------------------------|
B--------7~---------------------------------------------------------2~-4~-0~-|
G----------6~--------------------6~----------------6~------------------------|
D------------6~--------------------6~----------------6~----------------------|
A------------------------------------4~----------------4~--------------------|
E----------------------------------------------------------------------------|
Guitar 3
e----------------------------------------------------------------------------|
B----------------------------------------------------------------------------|
G-3~-----------------6~-------------------6~-------------------4~------------|
D-4~-----------------6~-----------6-6-6--66~---------6-6-6---6\4~------4-4-4-|
A-4~---------4-4-----4~-----------4-4-4--44~---------4-4-4---4\2~------2-2-2-|
E-2~---------2-2-------------------------------------------------------------|


Chorus
Guitar 1
e----------------------------------------------------------------------------|
B----------------------------------------------------------------------------|
G-3~-----------------6~-------------------6~-------------------4~------------|
D-4~-----------------6~-----------6-6-6--66~---------6-6-6---6\4~------4-4-4-|
A-4~---------4-4-----4~-----------4-4-4--44~---------4-4-4---4\2~------2-2-2-|
E-2~---------2-2-------------------------------------------------------------|
Guitar 2
e----------------------------------------------------------------------------|
B--------7~---------------------------------------------------------2~-4~-0~-|
G----------6~--------------------6~----------------6~------------------------|
D------------6~--------------------6~----------------6~----------------------|
A------------------------------------4~----------------4~--------------------|
E----------------------------------------------------------------------------|
Guitar 3
e----------------------------------------------------------------------------|
B----------------------------------------------------------------------------|
G-3~-----------------6~-------------------6~-------------------4~------------|
D-4~-----------------6~-----------6-6-6--66~---------6-6-6---6\4~------4-4-4-|
A-4~---------4-4-----4~-----------4-4-4--44~---------4-4-4---4\2~------2-2-2-|
E-2~---------2-2-------------------------------------------------------------|
Guitar 4
e----------------------------------------------------------------------------|
B------------------------------------------------------7-6-7-----------------|
G------------------------------------------------------------4-3-1-----------|
D----------------------------------------------------------------------------|
A----------------------------------------------------------------------------|
E----------------------------------------------------------------------------|


Final Chorus
Guitar 1
e----------------------------------------------------------------------------|
B----------------------------------------------------------------------------|
G-3-3-3-3-3----------6-6-6-6-6-6-6-6-6-6-6-6-6-----------------4-4-4-4-4-4---|
D-4-4-4-4-4----------6-6-6-6-6-6-6-6-6-6-6-6-6---------------6\4-4-4-4-4-4---|
A-4-4-4-4-4----------4-4-4-4-4-4-4-4-4-4-4-4-4---------------4\2-2-2-2-2-2---|
E-2-2-2-2-2------------------------------------------------------------------|
Guitar 2
e----------------------------------------------------------------------------|
B--------7~---------------------------------------------------------2~-4~-0~-|
G----------6~--------------------6~----------------6~------------------------|
D------------6~--------------------6~----------------6~----------------------|
A------------------------------------4~----------------4~--------------------|
E----------------------------------------------------------------------------|
Guitar 3
e----------------------------------------------------------------------------|
B----------------------------------------------------------------------------|
G-3-3-3-3-3----------6-6-6-6-6-6-6-6-6-6-6-6-6-----------------4-4-4-4-4-4---|
D-4-4-4-4-4----------6-6-6-6-6-6-6-6-6-6-6-6-6---------------6\4-4-4-4-4-4---|
A-4-4-4-4-4----------4-4-4-4-4-4-4-4-4-4-4-4-4---------------4\2-2-2-2-2-2---|
E-2-2-2-2-2------------------------------------------------------------------|
Guitar 4
e--6--4--6--2---2----6--4--6--2-----2-----6--4--6--2-----2----6--4--6--7--6-4-|
B-------------2-------------------2--------------------2----------------------|
G-----------------------------------------------------------------------------|
D-----------------------------------------------------------------------------|
A-----------------------------------------------------------------------------|
E-----------------------------------------------------------------------------|


Repeat Final chorus


Outro (After Final Chorus)
Guitar 1
e----------------------------------------------------------------------------|
B----------------------------------------------------------------------------|
G----------------------6~-------------------6~------------------4~-----------|
D--4~------------------6~-------------------6~----------------8\4~-----------|
A--4~------------------4~-------------------4~----------------6\2~-----------|
E--2~------------------------------------------------------------------------|
	Pickscrape	    pickscrape		picksrape
Guitars 3
e----------------------------------------------------------------------------|
B----------------------------------------------------------------------------|
G----------------------6~-------------------6~------------------4~-----------|
D--4~------------------6~-------------------6~----------------8\4~-----------|
A--4~------------------4~-------------------4~----------------6\2~-----------|
E--2~------------------------------------------------------------------------|
	Pickscrape	    pickscrape		pickscrape
Guitar 4
e--6--4--6--2-----2----6--4--6--2-----2-----6--4--6--2-----2------------2----|
B--------------2-------------------2--------------------2---------2h4~----4~-|
G----------------------------------------------------------------------------|
D----------------------------------------------------------------------------|
A----------------------------------------------------------------------------|
E----------------------------------------------------------------------------|


All guitars fade out


| \  slide up
| /  slide down
| h  hammer-on
| p  pull-off
| ~  vibrato
| +  harmonic
| x  Mute note
| [] Unconfirmed notes
===============================================================================
Comments