Ataris - The Boys Of Summer Chords & Tabs

 

The Boys Of Summer Chords & Tabs

Ataris Chords & Tabs

Version: 2 Type: Chords 0 ratings
1 star 2 stars 3 stars 4 stars 5 stars
comments

The Boys Of Summer Chords

   
-------------------------------------------------------------------------------
			     The Boys Of summer- The ataris
-------------------------------------------------------------------------------
Tabbed by: Hardehhh@ultimate-guitar.com
Email:fordracing27@hotmail.com

Tuning: E A D G B E
This is my first time every writing a song down
i usually dont do this

Guitar 1             D#        x4 Bm      x4 C#      x4   Bm         x4
e|------------------|------------|-----------|-----------|-----------|
B|------------------|--7-6-------|-7-6-------|--7-6------|--7-6------|
G|-6----------------|------5-----|-----5-----|------5----|------5----|
D|-6------------4---|------------|-----------|-----------|-----------|
A|-4--------4h6---6-|------------|-----------|-----------|-----------|
E|------------------|------------|-----------|-----------|-----------|

Guitar 2             D#            Bm         C#          Bm
e|-------------------------------------------------------------------|
B|-------------------------------------------------------------------|
G|--------------------6----------------------------------------------|
D|--------------------6------------9-----------11----------9---------|
A|--------------------4--let-ring--9-----------11----------9---------|
E|---------------------------------7-let-ring--9-let-ring--7-let-ring|

D#
Nobody on the road, nobody on the beach
Bm
I feel it in the air, the summer's out of reach 
C#
Empty lake, empty streets, the sun goes down alone 
Bm
I'm drivin' by your house, though I know you're not at home 
[ Tab from: http://www.guitartabs.cc/tabs/a/ataris/the_boys_of_summer_crd_ver_2.html ]
Chorus:
F#m
But I can see you
C#
Your brown skin shinin' in the sun
C# 					 Bm
You got your hair combed back and your sunglasses on, baby
F#m		       C#
And I can tell you my love for you will still be strong 
C#		   Bm
After the boys of summer have gone 

Solo:
D# - B5 - C# - Bm

D#
I never will forget those nights, I wonder if it was a dream 
Bm
Remember how you made me crazy? remember how I made you scream 
C#
Now I don't understand what happened to our love 
Bm
But babe, I'm gonna get you back, I'm gonna show you what I'm made of

Chorus:
F#m
I can see you
C#				
Your brown skin shinin' in the sun
C#					 Bm
I see you walkin' real slow and you're smilin' at everyone
F#m		   C#
I can tell you my love for you will still be strong
C#		   Bm			Bm
After the boys of summer have gone

Solo (x2):
D# - B5 - C# - B5

D#
Out on the road today, I saw a black flag sticker on a Cadillac
Bm
A little voice Inside my head said, Don't look back. You can never look back
C#
I thought I knew what love was What did I know? 
Bm
Those days are gone forever, I should just let them go but

Chorus:
F#m
I can see you
C#				
Your brown skin shinin' in the sun
C#					Bm
You got that top pulled down and that radio on, baby 
F#m		       C#
And I can tell you my love for you will still be strong 
C#		   Bm
After the boys of summer have gone

Chorus:
F#m
I can see you
C#				
Your brown skin shinin' in the sun
C#				    Bm
You got that hair slicked back and those Wayfarers on, baby
F#m		   C#
I can tell you my love for you will still be strong
C#		   Bm
After the boys of summer have gone

| /  slide up
| \  slide down
| h  hammer-on
| p  pull-off
| ~  vibrato
| +  harmonic
| x  Mute note
===============================================================================
Comments