Ataris - The Boys Of Summer Chords & Tabs

 

The Boys Of Summer Chords & Tabs

Ataris Chords & Tabs

Version: 4 Type: Bass Tab 0 ratings
1 star 2 stars 3 stars 4 stars 5 stars
comments

The Boys Of Summer Bass Tab

Intro
G-------------------------------------|
D-------------------------------------|
A--6~----6~--2~--4~--2~----22222222---|
E-------------------------------------|

Verses/every other Intro
G------------------|
D------------------|
A--6>--2>--4>--2>--|
E------------------|

Chorus
G---------------|
D---------------|
A--9>--4>>--2>--|
E---------------|

Bridge
G------------|
D------------|
A--2~----2~--|
E------------|
just play these notes like slower than usual right here
G---------------------|
D---------------------|
A--6>---2>---4>---2>--|
E---------------------|
[ Tab from: http://www.guitartabs.cc/tabs/a/ataris/the_boys_of_summer_btab_ver_4.html ]
Chorus with fills (you play the chorus bar regular once,then these three)
G----------------------------------|
D----------------------------------|
A--9>--4>>--2222222/1414-14-16-14--|
E----------------------------------|

G------------------------------|
D------------------------------|
A--9>--4>>--2222222/-14-13-11--|
E------------------------------|

G------------------------------|
D------------------------------|
A--9>---4>>---2222222-1-1------|
E-------------------------44-4-|
Ending (let these notes ring out at the end)
G------------------|
D------------------|
A--9~--4~--4~--2~--|
E------------------|

Girls love this song
Comments