Ataris - The Boys Of Summer Chords & Tabs

 

The Boys Of Summer Chords & Tabs

Ataris Chords & Tabs

Version: 3 Type: Bass Tab 0 ratings
1 star 2 stars 3 stars 4 stars 5 stars
comments

The Boys Of Summer Bass Tab

This is my first tab. If you don't like it. Too bad.
And if you I have to tell you that this is a cover song then your a moron.

Intro:
G|-----------------------------------------------------------|
A|-----------------------------------------------------------|
D|6~-----------6~-----------2~-----------4~----------2~------|
G|-----------------------------------------------------------|

Verse 1:
G|----------------------------------------------------------------|
A|----------------------------------------------------------------|
D|6-66-6-6x4---2-22-2-2x4---4-44-4-4x4---2-22-2-2x4---------------|
G|----------------------------------------------------------------|
"Nobody on the road..."

Chorus:
G|----------------------------------------------------------------|  
A|4-4-4-4-4-4-4-4-------------------------------------------------|   x2
D|----------------4-4-4-4-4-4-4-4-4-4-4-4-4-4-4-4-2-2-2-2-2-2-2-2-|
E|----------------------------------------------------------------|
"I can see you..."

Verse 2:
G|----------------------------------------------------------------|
A|----------------------------------------------------------------|
D|6-66-6-6x4---2-22-2-2x4---4-44-4-4x4---2-22-2-2x4---------------|
G|----------------------------------------------------------------|
"I never would forget those nights..."

Chorus:
G|----------------------------------------------------------------|  
A|4-4-4-4-4-4-4-4-------------------------------------------------|   x2
D|----------------4-4-4-4-4-4-4-4-4-4-4-4-4-4-4-4-2-2-2-2-2-2-2-2-|
E|----------------------------------------------------------------|
"I can see you..."
[ Tab from: http://www.guitartabs.cc/tabs/a/ataris/the_boys_of_summer_btab_ver_3.html ]
Bridge:
G|----------------------------------------------------------------|
A|4~-------4~-----------------------------------------------------|
D|----------------------------------------------------------------|
E|----------------------------------------------------------------|

G|----------------------------------------------------------------|
A|----------------------------------------------------------------|  x2
D|6-66-6-6x4---2-22-2-2x4---4-44-4-4x4---2-22-2-2x4---------------|
G|----------------------------------------------------------------|

Verse 3:
G|----------------------------------------------------------------|
A|----------------------------------------------------------------|
D|6-66-6-6x4---2-22-2-2x4---4x20--2x20----------------------------|
G|----------------------------------------------------------------|
"I'm on the road today..."

Outro:
G|----------------------------------------------------------------|  
A|4-4-4-4-4-4-4-4-------------------------------------------------|   x4
D|----------------4-4-4-4-4-4-4-4-4-4-4-4-4-4-4-4-2-2-2-2-2-2-2-2-|
E|----------------------------------------------------------------|
"I can see you..."

G|----------------------------------------------------------------|  
A|4~--------------------------------------------------------------|
D|----------------4~--------------4~-----------------2~-----------|
E|----------------------------------------------------------------|

That's it. There is some sort of slide or "hammer on" on the outro,but I'm too
lazy to figure it out. I'm pretty sure it's right. Questions or comments just
e-mail me. propagandhi81@aol.com
Comments