Ataris - Something Chords & Tabs

 

Something Chords & Tabs

Ataris Chords & Tabs

Version: 1 Type: Tab 0 ratings
1 star 2 stars 3 stars 4 stars 5 stars
comments

Something Tab

   
Song: Something
Band: The Ataris
Album: Let it Burn (Ataris/Useless ID Split)
Label: Kung Fu Records
Tabbed By: Donahue2

This song is a secret track on a crappy record.  It's kind of funny that it
happens to be the only good song on it.

Tuning: Standard (EADGBe)

INTRO:
e|--x-x-xx-x-x-x--|
B|--x-x-xx-x-x-x--|
G|--x-x-xx-x-x-x--|
D|--x-x-xx-x-x-x--|
A|--x-x-xx-x-x-x--|
E|--x-x-xx-x-x-x--|

VERSE:
e|------------------------------------------------------------------------------|
B|------------------------------------------------------------------------------|
G|--77-77-7-7-7-7-7-7--44-44-4-4-4-4-4-4----------------------------------------|
D|--77-77-7-7-7-7-7-7--44-44-4-4-4-4-4-4--55-55-5-5-5-5-5-5--77-77-7-7-7-7-7-7--|
A|--55-55-5-5-5-5-5-5--22-22-2-2-2-2-2-2--55-55-5-5-5-5-5-5--77-77-7-7-7-7-7-7--|
E|----------------------------------------33-33-3-3-3-3-3-3--55-55-5-5-5-5-5-5--|
"Today I'm missing something
 In this small New England Town,
 So, here's to you, my best friends.
 Just want to say that I miss having you around."
[ Tab from: http://www.guitartabs.cc/tabs/a/ataris/something_tab.html ]
VERSE:
e|-----------------------------------------------------------------------------|
B|-----------------------------------------------------------------------------|
G|--77-77-7-7-7-7-7-7--44-44-4-4-4-4-4-4---------------------------------------|
D|--77-77-7-7-7-7-7-7--44-44-4-4-4-4-4-4--55-55-5-5-5-5-5-5--77-7-7-7~--7-7-7--|
A|--55-55-5-5-5-5-5-5--22-22-2-2-2-2-2-2--55-55-5-5-5-5-5-5--77-7-7-7~--7-7-7--|
E|----------------------------------------33-33-3-3-3-3-3-3--55-5-5-5~--5-5-5--|
"I'm staring at your picture
 And dreaming that I could hold your hand
 We'd walk down to the ocean
 And I would write your name in the sand."

BREAKDOWN:
e|----------------------------------------------------------|
B|----------------------------------------------------------|
G|--4-4-4-4-44-4----------------7-7-7-7-77-7--7-7-7-7-77-7--|
D|--4-4-4-4-44-4--5-5-5-5-55-5--7-7-7-7-77-7--7-7-7-7-77-7--|
A|--2-2-2-2-22-2--5-5-5-5-55-5--5-5-5-5-55-5--5-5-5-5-55-5--|
E|----------------3-3-3-3-33-3----------------6-6-6-6-66-6--|

e|--------------------------------------------|
B|--------------------------------------------|
G|-4-4-4-4-44-4----------------7-7-77-7-7-7~--|
D|-4-4-4-4-44-4--5-5-5-5-55-5--7-7-77-7-7-7~--|
A|-2-2-2-2-22-2--5-5-5-5-55-5--5-5-55-5-5-5~--|
E|---------------3-3-3-3-33-3-----------------|
"They say sometimes we need some time apart
 But, I've got a bad case of broken heart
 And you're the only one who's got the cure
 And I can't live another day without seeing you smile."

OUTRO:
e|------|
B|------|
G|--7~--|
D|--7~--|
A|--5~--|
E|------|

*Note:  That fourth note in the breakdown looks wrong and sounds like crap,
        But, I swear to God that it's the way he plays it.  Although I'm
        not sure why, it's totally out of key.

| /  slide up
| \  slide down
| h  hammer-on
| p  pull-off
| ~  vibrato
| +  harmonic
| x  Mute note

Donahue2: point_blanc99@hotmail.com
Comments