Ataris - So Long Astoria Chords & Tabs

 

So Long Astoria Chords & Tabs

Ataris Chords & Tabs

Version: 2 Type: Tab 0 ratings
1 star 2 stars 3 stars 4 stars 5 stars
comments

So Long Astoria Tab

#----------------------------------PLEASE NOTE---------------------------------#
#This file is the author's own work and represents their interpretation of the-#
#song. You may only use this file for private study, scholarship, or research.-#
#------------------------------------------------------------------------------#

Ataris - So Long, Astoria

Intro
Guitar 1
|---------------------------------------------------------------------------|
|---------------------------------------------------------------------------|
|--7-------------------------------4---------------2------------------------|
|--7---------------5---------------4---------------2------------------------|
|--5---------------5---------------2---------------0------------------------|
|------------------3--------------------------------------------------------|

Guitar 2
|---------------------------------------------------------------------------|
|---------------------------------------------------------------------------|
|--7---7---7---7---6---6---6---6---7---7---7---7---9---9---9---9------------|
|----7---7---7---7---7---7---7---7---7---7---7---7---7---7---7---7----------|
|---------------------------------------------------------------------------|
|---------------------------------------------------------------------------|

|---------------------------------------------------------------------------|
|---------------------------------------------------------------------------|
|------6-7------6-7------6-7---7---7---6-----------6-7-----6-7-----6-7---7~-|
|--5-7------5-7------5-7---------7---7---7-----5-7-----5-7-----5-7----------|
|---------------------------------------------------------------------------|
|---------------------------------------------------------------------------|

Verse
Guitar 1
|---------------------------------------------------------------------------|
|---------------------------------------------------------------------------|
|--7--7--7--7--7--7--7--7--7--7--7--7--7--7--7--7--6------------------------|
|---------------------------------------------------------------------------|
|--5--5--5--5--5--5--5--5--5--5--5--5--5--5--5--5--4------------------------|
|---------------------------------------------------------------------------|

|---------------------------------------------------------------------------|
|---------------------------------------------------------------------------|
|--7-------------------------------4---------------2------------------------|
|--7---------------5---------------4---------------2------------------------|
|--5---------------5---------------2---------------0------------------------|
|------------------3--------------------------------------------------------|

Chorus
Guitar 1
|---------------------------------------------------------------------------|
|---------------------------------------------------------------------------|
|-------------------------4-4-4-4---2-2-2-2---------------------------------|
|--2-2----4-4----5-5------4-4-4-4---2-2-2-2---------------------------------|
|--2-2----4-4----5-5------2-2-2-2---0-0-0-0---------------------------------|
|--0-0----2-2----3-3--------------------------------------------------------|
[ Tab from: http://www.guitartabs.cc/tabs/a/ataris/so_long_astoria_tab_ver_2.html ]
|---------------------------------------------------------------------------|
|---------------------------------------------------------------------------|
|-------------------------4-4-4-4---2-2-2-2---------------------------------|
|--2-2----4-4----5-5------4-4-4-4---2-2-2-2---2-2-2-2----5----7-------------|
|--2-2----4-4----5-5------2-2-2-2---0-0-0-0---2-2-2-2----5----7-------------|
|--0-0----2-2----3-3--------------------------0-0-0-0----3----5-------------|

Guitar 2
|---------------------------------------------------------------------------|
|---------------------------------------------------------------------------|
|--7------9------11-------7---------9---------11----------------------------|
|---------------------------------------------------------------------------|
|--5------7------9--------5---------7---------9-----------------------------|
|---------------------------------------------------------------------------|

Bridge
Guitar 1
|---------------------------------------------------------------------------|
|---------------------------------------------------------------------------|
|--7---------------7---------------4--------------2-------------------------|
|--7---------------7---------------4--------------2-------------------------|
|--5---------------4---------------2--------------0-------------------------|
|---------------------------------------------------------------------------|

Guitar 2
|---------------------------------------------------------------------------|
|---------------------------------------------------------------------------|
|--7-----------7/9/6-----------6/7/4----------4/6/2-------------------------|
|---------------------------------------------------------------------------|
|--5-----------5/7/4-----------4/5/2----------2/4/0-------------------------|
|---------------------------------------------------------------------------|

Outro
Guitar 1
|---------------------------------------------------------------------------|
|---------------------------------------------------------------------------|
|--7-----------7-----------4-----------2----------------------2-------------|
|--7-----------7-----------4-----------2----------2-----------2-------------|X3
|--5-----------4-----------2-----------0----------2-----------0-------------|
|-------------------------------------------------0-------------------------|

|---------------------------------------------------------------------------|
|---------------------------------------------------------------------------|
|--7-----------7-----------4-----------2------------------------------------|
|--7-----------7-----------4-----------2----------5-5---5-5---5---5---------|X1
|--5-----------4-----------2-----------0----------5-5---5-5---5---5---------|
|-------------------------------------------------3-3---3-3---3---3---------|

Guitar 2
|---------------------------------------------------------------------------|
|---------------------------------------------------------------------------|
|--7-----------6-----------4-----------2------------------------------------|
|---------------------------------------------------------------------------|X3
|--5-----------4-----------2-----------0------------------------------------|
|---------------------------------------------------------------------------|

|---------------------------------------------------------------------------|
|---------------------------------------------------------------------------|
|--7-----------6-----------4-----------2----------7-6---7-6---7---7---------|
|---------------------------------------------------------------------------|X1
|--5-----------4-----------2-----------0----------5-4---5-4---5---5---------|
|---------------------------------------------------------------------------| 

================================================================================
Comments