Ataris - So Long Astoria Chords & Tabs

 

So Long Astoria Chords & Tabs

Ataris Chords & Tabs

Version: 1 Type: Bass Tab 0 ratings
1 star 2 stars 3 stars 4 stars 5 stars
comments

So Long Astoria Bass Tab

   
-------------------------------------------------------------------------------
			SO LONG, ASRORIA- ATARIS
-------------------------------------------------------------------------------
Tabbed By : keepitpunk
e-mail: liambussey88@hotmail.com

| X  dead note

Tuning:EADG

INTRO
G|----------------------------------------------------------------|
D|----------------------------------------------------------------|
A|-5-5-5-5-5-5-5-5------------------------------------------------|
E|-----------------3-3-3-3-3-3-3-3-7-7-7-7-7-7-7-7-5-5-5-5-5-5-5-5|

G|----------------------------------------------------------------|
D|----------------------------------------------------------------|
A|-5-5-5-5-5-5-5-5------------------------------------------------|
E|-----------------3-3-3-3-3-3-3-3-7-7-7-7-7-7-7-7-7-7-7-7-5-5-5-5|

VERSE (X2)
G|----------------------------------------------------------------|
D|----------------------------------------------------------------|
A|-5-5-5-5-5-5-5-5------------------------------------------------|
E|-----------------3-3-3-3-3-3-3-3-7-7-7-7-7-7-7-7-5-5-5-5-5-5-5-5|

CHORUS 1 (X2)
G|----------------------------------------------------------------|
D|----------------------------------------------------------------|
A|----------------------------------------------------------------|
E|-0-0-0-0-2-2-2-2-3-3-3-3-3-3-3-3-7-7-7-7-7-7-7-7-5-5-5-5-5-5-5-5|


CHORUS 2
G|--------------------------------|
D|--------------------------------|
A|--------------------------------|
E|-0-0-2-2-3-3-3-3-5-5-5-5-7-7-7-7|


INTERLUDE
G|----------------------------------------------------------------|
D|----------------------------------------------------------------|
A|-5-5-5-5-5-5-5-5------------------------------------------------|
E|-----------------3-3-3-3-3-3-3-3-7-7-7-7-7-7-7-7-6-6-6-6-5-5-5-5|
[ Tab from: http://www.guitartabs.cc/tabs/a/ataris/so_long_astoria_btab.html ]
VERSE (X2)
G|----------------------------------------------------------------|
D|----------------------------------------------------------------|
A|-5-5-5-5-5-5-5-5------------------------------------------------|
E|-----------------3-3-3-3-3-3-3-3-7-7-7-7-7-7-7-7-5-5-5-5-5-5-5-5|

CHORUS 1 (X2)
G|----------------------------------------------------------------|
D|----------------------------------------------------------------|
A|----------------------------------------------------------------|
E|-0-0-0-0-2-2-2-2-3-3-3-3-3-3-3-3-7-7-7-7-7-7-7-7-5-5-5-5-5-5-5-5|

CHORUS 2
G|--------------------------------|
D|--------------------------------|
A|--------------------------------|
E|-0-0-2-2-3-3-3-3-5-5-5-5-7-7-7-7

INTERLUDE
G|----------------------------------------------------------------|
D|----------------------------------------------------------------|
A|-5-5-5-5-5-5-5-5-5-5-5-5-5-5-5-5-5-5-5-5-5-5-5-5----------------|
E|-------------------------------------------------7-7-7-7-5-5-5-5|

VERSE (X2)
G|----------------------------------------------------------------|
D|----------------------------------------------------------------|
A|-5-5-5-5-5-5-5-5------------------------------------------------|
E|-----------------3-3-3-3-3-3-3-3-7-7-7-7-7-7-7-7-5-5-5-5-5-5-5-5|

G|----------------------------------------------------------------|
D|----------------------------------------------------------------|
A|-5-5-5-5-5-5-5-5-5-5-5-5-5-5-5-5--------------------------------|
E|---------------------------------7-7-7-7-7-7-7-7-5-5-5-5-5-5-5-5|

OUTRO
G|----------------------------------------------------------------|
D|----------------------------------------------------------------|
A|-5-5-5-5-5-5-5-5------------------------------------------------|
E|-----------------3-3-3-3-3-3-3-3-7-7-7-7-7-7-7-7-5-5-5-5-5-5-5-5|

G|----------------------|
D|----------------------|
A|-5-5-XXX--------------|
E|---------3-3-XXX-5-5-5|

THIS AS GOOD AS I CAN MAKE IT SO IF YOU HAVE ANY CORRECTIONS PLEASE TELL ME AND
DONT KEEP IT TO YOURSELF, OK?
===============================================================================
Comments