Ataris - Losing Streak Chords & Tabs

 

Losing Streak Chords & Tabs

Ataris Chords & Tabs

Version: 1 Type: Tab 0 ratings
1 star 2 stars 3 stars 4 stars 5 stars
comments

Losing Streak Tab

Artist: The Ataris
Song: Losing Streak
Tabbed By: Homie "G"

~ - let ring out 
pm - palm mute 
/ - slide 
x - mute chord after playing it 


Intro - Guitar 1 only, feedback from Guitar 2 
e|----------------------------------------------------------------------------| 
B|----------------------------------------------------------------------------| 
G|-----------9999-------------------------------------------------------------| 
D|-9999-6666-9777---9999-6666-4444-4x-----------------------------------------| 
A|-9999-6666-7777---9999-6666-4444-4x-----------------------------------------| 
E|-7777-4444--------7777-4444-2222-2x-----------------------------------------| 

Verse 1: 
(Guitar 1) 
e|----------------------------------------------------------------------------| 
B|----------------------------------------------------------------------------| 
G|----------------------------------------------------------------------------| 
D|-9-9-9-9-9-9-9-9-9-9-9-9-9-9-9-9-9-9----6-6-6-6-6-6-6-6-6-6-6-6-6-6-6-6-6-6-| 
A|-9-9-9-9-9-9-9-9-9-9-9-9-9-9-9-9-9-9----6-6-6-6-6-6-6-6-6-6-6-6-6-6-6-6-6-6-| 
E|-7-7-7-7-7-7-7-7-7-7-7-7-7-7-7-7-7-7----4-4-4-4-4-4-4-4-4-4-4-4-4-4-4-4-4-4-| 
(Guitar 2) 
e|----------------------------------------------------------------------------| 
B|----------------------------------------------------------------------------| 
G|11-------9---------------------8-----9-8--16----------15---------------13---| 
D|x--------x---------------------x-----x-x--x-----------x----------------x----| 
A|9--------7---------------------6-----7-6--14----------13---------------11---| 
E|----------------------------------------------------------------------------| 
 You only know what you've been taught.   You'll never stop til' you get caught. 

(Guitar 1) 
e|----------------------------------------------------------------------------| 
B|----------------------------------------------------------------------------| 
G|----------------9-9-9-9-9-9-9-9-9-9-9--9-9-9--11-11-------------------------| 
D|----------------9-9-9-9-9-9-9-9-9-9-9--9-9-9--11-11-------------------------| 
A|----------------7-7-7-7-7-7-7-7-7-7-7--6-7-7--9--9--------------------------| 
E|----------------------------------------------------------------------------| 
(Guitar 2) 
e|----------------------------------------------------------------------------| 
B|----------------------------------------------------------------------------| 
G|----8-----------9------8--------6--------9----11----------------------------| 
D|----x-----------x------x--------x--------x----x-----------------------------| 
A|----6-----------7------6--------4--------7----9-----------------------------| 
E|----------------------------------------------------------------------------| 
 You control the future and its looking bleak 
I guess if we ignore it it'll probably go away. 

(Guitar 1) 
e|----------------------------------------------------------------------------| 
B|----------------------------------------------------------------------------| 
G|----------------------------------------------------------------------------| 
D|-9-9-9-9-9-9-9-9-9-9---9---6--4-4-4-4-4-4-4-4-4-4---------------------------| 
A|-9-9-9-9-9-9-9-9-9-9---9---6--4-4-4-4-4-4-4-4-4-4---------------------------| 
E|-7-7-7-7-7-7-7-7-7-7---6---4--2-2-2-2-2-2-2-2-2-2---------------------------| 

(Guitar 2) 
e|----------------------------------------------------------------------------| 
B|----------------------------------------------------------------------------| 
G|---8-------------------------9------6---------------------------------------| 
D|---x-------------------------x------x---------------------------------------| 
A|---6-------------------------7------4---------------------------------------| 
E|----------------------------------------------------------------------------|
 Seems like we're headed for another losing streak. 

e|----------------------------------------------------------------------------| 
B|----------------------------------------------------------------------------| 
G|---8-------------------------9------11--------------------------------------| 
D|---x-------------------------x------x---------------------------------------| 
A|---6-------------------------7------9---------------------------------------| 
E|----------------------------------------------------------------------------| 
 If you believe that bull*** please see exhibit a. 

Chorus: 
(Guitar 1) 
e|----------------------------------------------------------------------------| 
B|----------------------------------------------------------------------------| 
G|----9-9-9-9---11-11-11-11-11------------------------------------------------| 
D|----9-9-9-9---11-11-11-11-11--9-9-9--9-9-9-6-6-6-4-4-4----------------------| 
A|----7-7-7-7---9--9--9--9--9---9-9-9--9-9-9-6-6-6-4-4-4----------------------| 
E|------------------------------7-7-7--6-6-6-4-4-4-2-2-2----------------------|
 
(Guitar 2) 
e|----------------------------------------------------------------------------| 
B|----------------------------------------------------------------------------| 
G|----9---------11---------------9-------8---------6--4-----------------------| 
D|----x---------x----------------x-------x---------x--x-----------------------| 
A|----7---------9----------------7-------6---------4--2-----------------------| 
E|----------------------------------------------------------------------------| 
  Forget about friendship, hey! Let's destroy the enemy. 
[ Tab from: http://www.guitartabs.cc/tabs/a/ataris/losing_streak_tab.html ]
(Guitar 1) 
e|----------------------------------------------------------------------------| 
B|----------------------------------------------------------------------------| 
G|-9-9-9-9-9-9-9-9-9-9-9-9-9-9-9-9-9-9-9-9--11-11~----------------------------| 
D|-9-9-9-9-9-9-9-9-9-9-9-9-9-9-9-9-9-9-9-9--11-11~----------------------------| 
A|-7-7-7-7-7-7-7-7-7-7-7-7-7-7-7-7-7-7-7-7--9--9-~----------(pickscrape)------| 
E|----------------------------------------------------------------------------|
 
(Guitar 2) 
e|----------------------------------------------------------------------------| 
B|----------------------------------------------------------------------------| 
G|----------------9-----------------------11-9--8-----------11----------------| 
D|----------------x-----------------------x--x--x-----------x-----------------| 
A|----------------7-----------------------9--7--6-----------9-----------------| 
E|----------------------------------------------------------------------------| 
 Well if there's one thing that I've learned My enemies are just as close to me. 

Bridge (basically the same as the verse except with pauses) 
(Guitar 1) 
e|----------------------------------------------------------------------------| 
B|--------------------------------------------------------------------------p-| 
G|--------------------------------------------------------------------------a-| 
D|-9-9-9-9-9-9-9-9-9-9-9-9-9-9-9-9-9-9----6-6-6-6-6-6-6-6-6-6-6-6-6-6-6-6-6-u-| 
A|-9-9-9-9-9-9-9-9-9-9-9-9-9-9-9-9-9-9----6-6-6-6-6-6-6-6-6-6-6-6-6-6-6-6-6-s-| 
E|-7-7-7-7-7-7-7-7-7-7-7-7-7-7-7-7-7-7----4-4-4-4-4-4-4-4-4-4-4-4-4-4-4-4-4-e-| 

(Guitar 2) 
e|----------------------------------------------------------------------------| 
B|--------------------------------------------------------------------------p-| 
G|11-------9--------------------8-----9-8--16----------15---------------13-9a-| 
D|x--------x--------------------x-----x-x--x-----------x----------------x--xu-| 
A|9--------7--------------------6-----7-6--14----------13---------------11-7s-| 
E|--------------------------------------------------------------------------e-| 

(Guitar 1) 
e|----------------------------------------------------------------------------| 
B|-------------------------------p--------------------------------------------| 
G|----------------9-9-9-9-9-9-9-9a--------9-9-9-9-9--11-11-11-----------------| 
D|----------------9-9-9-9-9-9-9-9u--------9-9-9-9-9--11-11-11-----------------| 
A|----------------7-7-7-7-7-6-6-6s--------7-7-7-7-7--9--9--9------------------| 
E|-------------------------------e--------------------------------------------| 

(Guitar 2) 
e|----------------------------------------------------------------------------| 
B|-------------------------------p--------------------------------------------| 
G|----------------9---------8---6a--------9-------8--11-----------------------| 
D|----------------x---------x---xu--------x-------x--x------------------------| 
A|----------------7---------6---4s--------7-------6--9------------------------| 
E|-------------------------------e--------------------------------------------| 

(Guitar 1) 
e|----------------------------------------------------------------------------| 
B|----------------------------------------------------------------------------| 
G|----------------------------------------------------------------------------| 
D|-9-9-9-9-9-9-9-9-9-9---9---6--4-4-4-4-4-4-4-4-4-4---------------------------| 
A|-9-9-9-9-9-9-9-9-9-9---9---6--4-4-4-4-4-4-4-4-4-4---------------------------| 
E|-7-7-7-7-7-7-7-7-7-7---6---4--2-2-2-2-2-2-2-2-2-2---------------------------|
 
(Guitar 2) 
e|----------------------------------------------------------------------------| 
B|----------------------------------------------------------------------------| 
G|---8-------------------------9------6---------------------------------------| 
D|---x-------------------------x------x---------------------------------------| 
A|---6-------------------------7------4---------------------------------------| 
E|----------------------------------------------------------------------------| 

Verse 2 (same chords): 

Chorus 2(same chords): 

Outro:  (both guitars) 
e|----------------------------------------------------------------------------| 
B|----------------------------------------------------------------------------| 
G|-4-4-4-4/6--------------9-9-9-8-8-8-6-6-6-4-4-4-----------------------------| 
D|-4-4-4-4/6--6-6-6-6-6---9-9-9-8-8-8-6-6-6-4-4-4-----------------------------| 
A|-2-2-2-2/4--6-6-6-6-6---7-7-7-6-6-6-4-4-4-2-2-2-----------------------------| 
E|------------4-4-4-4-4-------------------------------------------------------| 
                        

e|----------------------------------------------------------------------------| 
B|----------------------------------------------------------------------------| 
G|-4-4-4-4/6--------------9-9-9-8-8-8-6-6-6-4-4-4-----------------------------| 
D|-4-4-4-4/6--6-6-6-6-6---9-9-9-8-8-8-6-6-6-4-4-4-----------------------------| 
A|-2-2-2-2/4--6-6-6-6-6---7-7-7-6-6-6-4-4-4-2-2-2-----------------------------| 
E|------------4-4-4-4-4-------------------------------------------------------| 
                       
                         Don't ever compromise what you believe. 
e|----------------------------------------------------------------------------| 
B|----------------------------------------------------------------------------| 
G|-4-4-4-4/6--------------9-9-9-8-8-8-6-6-6-4-4-4-----------------------------| 
D|-4-4-4-4/6--6-6-6-6-6---9-9-9-8-8-8-6-6-6-4-4-4-----------------------------| 
A|-2-2-2-2/4--6-6-6-6-6---7-7-7-6-6-6-4-4-4-2-2-2-----------------------------| 
E|------------4-4-4-4-4-------------------------------------------------------| 
                   

e|----------------------------------------------------------------------------| 
B|----------------------------------------------------------------------------| 
G|-4-4-4-4/6--------------9-9-9-9-9--------11-11-11-11------------------------| 
D|-4-4-4-4/6--6-6-6-6-6---9-9-9-9-9--------11-11-11-11-----9x-----------------| 
A|-2-2-2-2/4--6-6-6-6-6---7-7-7-7-7--------9--9--9--9------9x-----------------| 
E|------------4-4-4-4-4------------------------------------7x-----------------|
Comments