Ataris - Looking Back On Today Chords & Tabs

 

Looking Back On Today Chords & Tabs

Ataris Chords & Tabs

Version: 3 Type: Tab 0 ratings
1 star 2 stars 3 stars 4 stars 5 stars
comments

Looking Back On Today Tab

e|-------------------------------------------------------------|
B|----9-10-12-----14-12----9-10-9--7-5------9-7----------------|
G|--9----------13----------------------6--8-----8-9-8-------6--|
D|-----------------------------------------------------9--6----|
A|-------------------------------------------------------------|
E|-------------------------------------------------------------|
[ Tab from: http://www.guitartabs.cc/tabs/a/ataris/looking_back_on_today_tab_ver_3.html ]
e|--------------------------------------12---12-11-12-14-12-11-|
B|---------------------------9-10-12---------------------------|
G|------------------------9------------------------------------|
D|-9-6-4--6---6-7-9------------------13------------------------|
A|-------7----------9------------------------------------------|
E|-------------------------------------------------------------|

e|--9---7,7,7--------------------------------------------------|
B|---------------9-10-12,12-10-9-10-9-5\7-5-4-2(ring)----------|
G|-------------------------------------------------------------|
D|-------------------------------------------------------------|
A|-------------------------------------------------------------|
E|-------------------------------------------------------------|


The chords on all the other tabs seemed to line up pretty well, but i noticed that no 
had tabbed out the solo, so i got on it. This was taken from the accoustic track i had, 
it lines up just as well on the record track with electric, this is my 1st tab, so leave comments!
Comments