Ataris - Looking Back On Today Chords & Tabs

 

Looking Back On Today Chords & Tabs

Ataris Chords & Tabs

Version: 1 Type: Tab 0 ratings
1 star 2 stars 3 stars 4 stars 5 stars
comments

Looking Back On Today Tab

-------------------------------------------------------------------------------
			 LOOKING BACK ON TODAY  The Ataris
-------------------------------------------------------------------------------

By: Spike (Jim@PleasantDelay.com)

This tab is pretty much correct. I simplified the chords, because the real
chords to the song are really difficult.
[ Tab from: http://www.guitartabs.cc/tabs/a/ataris/looking_back_on_today_tab.html ]
Intro: X1  ^ means full measure.  * means half measure.  ~ means let chord ring.
e|--------------------------------------------------------------------|
B|-------7-------------------7-------------------1--------------------|
G|--9----9----6----2----9----9----6----4----2----2--------------------|
D|--9----9----6----2----9----9----6----4----2----2--------------------|
A|--7----6----4----0----7----6----4----2----0----0--------------------|
E|--------------------------------------------------------------------|
    ^    ^    ^    ^    *    *    *    *    ^    ~
Verse: X2
e|--------------------------------------------------------------------|
B|-------7-------------------7-------------------1--------------------|
G|--9----9----6----2----9----9----6----4----2----2--------------------|
D|--9----9----6----2----9----9----6----4----2----2--------------------|
A|--7----6----4----0----7----6----4----2----0----0--------------------|
E|--------------------------------------------------------------------|
    ^    ^    ^    ^    *    *    *    *    ^    ^
 Pre Chorus: X1
e|--------------------------------------------------------------------|
B|--------------------------------------------------------------------|
G|--2----4----6----4----2----2----4----6----4-x-x-x-------------------|
D|--4----6----6----4----2----4----6----6----4-x-x-x-------------------|
A|--4----6----4----2----0----4----6----4----2-x-x-x-------------------|
E|--2----4-------------------2----4-----------------------------------|
    ^    ^    *    *    ^    ^    ^    ^    ^    
 Chorus: X2                                           2nd time let ring
e|--------------------------------------------------------------------|
B|-------7------------------------7-------------------1-x-------------|
G|--9----9----6----4----2----9----9----6----4----2----2-x-------------|
D|--9----9----6----4----2----9----9----6----4----2----2-x-------------|
A|--7----6----4----2----0----7----6----4----2----0----0-x-------------|
E|--------------------------------------------------------------------|
    ^    ^    *    *    ^    *    *    *    *    ^    ^

-------------------------------------------------------------------------------
Comments