Ataris - In This Diary Chords & Tabs

 

In This Diary Chords & Tabs

Ataris Chords & Tabs

Version: 4 Type: Tab 0 ratings
1 star 2 stars 3 stars 4 stars 5 stars
comments

In This Diary Tab

Artist: The Atris
Title:In this diary
Album: So Long Astoria

Tabbed by Sean Green     (the_bunglist@yahooo.com)
Drop D tuning
This is THE correct version of this song.

INTRO


E ---------------------------------------------------------------------|
A ---------------------------------------------------------------------|
D -6-6-6-6-6-6-6-6-6-6-6-6-6-6-6-6-6-6-6-6-6-6-6-6---------------------|
G -5-5-5-5-5-5-5-5-5-5-5-5-5-5-5-5-8-8-8-8-8-8-8-8---------------------|
B ---------------------------------------------------------------------|
e ---------------------------------------------------------------------|

E ---------------------------------------------------------------------|
A ---------------------------------------------------------------------|
D -6-6-6-6-6-6-6-6-6-6-6-6-6-6-6-6-6-6-6-6-6-6-6-6---------------------|
G -5-5-5-5-5-5-5-5-6-6-6-6-6-6-6-6-5-5-5-5-5-5-5-5---------------------|
B ---------------------------------------------------------------------|
e ---------------------------------------------------------------------|

E ---------------------------------------------------------------------|
A ---------------------------------------------------------------------|
D -6-6-6-6-6-6-6-6-6-6-6-6-6-6-6-6-------------------------------------|
G -6-6-6-6-6-6-6-6-6-6-6-6-6-6-6-6-------------------------------------|
B ---------------------------------------------------------------------|
e ---------------------------------------------------------------------|

VERSE

E -3-3-3-3-3-3-3-3-3-3-3-3-3-3-3-3-1-1-1-1-1-1-1-1-1-1-1-1-1-1-1-1-----|
A -3-3-3-3-3-3-3-3-3-3-3-3-3-3-3-3-1-1-1-1-1-1-1-1-1-1-1-1-1-1-1-1-----|
D ---------------------------------------------------------------------|
G ---------------------------------------------------------------------|
B ---------------------------------------------------------------------|
e ---------------------------------------------------------------------|

E -6-6-6-6-6-6-6-6-6-6-6-6-6-6-6-6-------------------------------------|
A -6-6-6-6-6-6-6-6-6-6-6-6-6-6-6-6-4-4-4-4-4-4-4-4-4-4-4-4-4-4-4-4-----|
D ---------------------------------6-6-6-6-6-6-6-6-6-6-6-6-6-6-6-6-----|
G ---------------------------------------------------------------------|
B ---------------------------------------------------------------------|
e ---------------------------------------------------------------------|
[ Tab from: http://www.guitartabs.cc/tabs/a/ataris/in_this_diary_tab_ver_4.html ]
E -3-3-3-3-3-3-3-3-3-3-3-3-3-3-3-3-1-1-1-1-1-1-1-1-1-1-1-1-1-1-1-1-----|
A -3-3-3-3-3-3-3-3-3-3-3-3-3-3-3-3-1-1-1-1-1-1-1-1-1-1-1-1-1-1-1-1-----|
D ---------------------------------------------------------------------|
G ---------------------------------------------------------------------|
B ---------------------------------------------------------------------|
e ---------------------------------------------------------------------|


E ---------------------------------------------------------------------|
A -4-4-4-4-4-4-4-4-4-4-4-4-4-4-4-4-4-4-4-4-4-4-------------------------|
D -6-6-6-6-6-6-6-6-6-6-6-6-6-6-6-6-6-6-6-6-6-6-------------------------|
G -6-6-6-6-6-5-5-5-5-5-5-6-6-6-6-6-5-5-5-5-5-5-------------------------|
B ---------------------------------------------------------------------|
e ---------------------------------------------------------------------|

BRIDGE

E ---------------------------------------------------------------------|
A -1-1-1-1-4-4-4-4-4-4-4-4-8--8--8--8--8--8--8--8----------------------|
D -3-3-3-3-------------------------------------------------------------|
G -3-3-3-3-6-6-6-6-6-6-6-6-10-10-10-10-10-10-10-10---------------------|
B ---------------------------------------------------------------------|
e ---------------------------------------------------------------------|

CHORUS

E -3-3-3-3-1-1-1-1-6-6-6-6---------------------------------------------|
A -3-3-3-3-1-1-1-1-6-6-6-6-6-4-3-4-------------------------------------|
D ---------------------------------------------------------------------|
G -------------------------8-6-5-6-------------------------------------|
B ---------------------------------------------------------------------|
e ---------------------------------------------------------------------|


E -3-3-3-3-1-1-1-1-----------------------------------------------------|
A -3-3-3-3-1-1-1-1--4-4-4-4-4-4-4-4-4-4-4-4-4-4-4-4-4-4-4-4-4-4--------|
D ------------------6-6-6-6-6-6-6-6-6-6-6-6-6-6-6-6-6-6-6-6-6-6--------|
G ------------------6-6-6-6-6-5-5-5-5-5-5-6-6-6-6-6-5-5-5-5-5-5--------|
B ---------------------------------------------------------------------|
e ---------------------------------------------------------------------|

BEFORE THE 2ND VERSE AND AFTER THE SECOND CHORUS(more times for the 2nd 
chorus one!!)

E ---------------------------------------------------------------------|
A ---------------------------------------------------------------------|
D -6-6-6-6-6-6-6-6-6-6-6-6-6-6-6-6-x2----------------------------------|
G -3-3-3-3-3-3-3-3-5-5-5-5-5-5-5-5-------------------------------------|
B ---------------------------------------------------------------------|
e ---------------------------------------------------------------------|

Listen  to cd to get it perfect cus some of the ryhthms might be a bit
wrong. Hope this helps!!
Comments