Ataris - In This Diary Chords & Tabs

 

In This Diary Chords & Tabs

Ataris Chords & Tabs

Version: 3 Type: Tab 0 ratings
1 star 2 stars 3 stars 4 stars 5 stars
comments

In This Diary Tab

   
The Ataris
In This Diary
This is in dropped D tuning,it sounds 100% but i dont think
i have the correct amount of strumming,so figure it out,rate this
tab,have fun
Intro
e-----------------------------
b-----------------------------
g-5----8---5----6---5----6----
d-6x16-6x8-6x10-6x8-6x10-6x16-
a-6----6---6----4---4----4----
D-----------------------------

Verse 1
e----------------------
b---------------------- first chord not P.M.
g----------------------only play first time
d-----------------6----to go into verse 1
a-3-3----1----6---4x32-
E-3-3x16-1x16-6x16-----
P.M.~~~~~~~~~~~~~~~~

guitar 2 (0:22)(clean)
e--------------
b--------------
g-5-----3------
d--6-x4---5-x3-
a--------------
D--------------

guitar 1(0:27) x2
e----------
b----------
g-6---5----
d-6x6-x-x4-
a-4---4----
E----------

guitar 2 (0:44)(clean)
e----------------------
b----------------------
g-5-----8-------5------
d--6-x4---6-x3----6-x3-
a----------------------
D----------------------

guitar 1(0:49) x2
e----------
b----------
g-6---5----
d-6x6-x-x4-
a-4---4----
D----------

prechorus
guitar 1
e------
b------
g------
d-3-3/6-
a-1-1/4-
D-------

after guitar 1 plays the first Bm powerchord guitar 2 plays
e---------
b---------
g---------
d---------
a-4-4-4-4-
D---------

after guitar 1 plays C# powerchord guitar 2 plays
e---------
b---------
g---------
d-3-3-3-3-
a---------
E---------

Chorus 1
guitar 1(x2)
e---------------------
b---------------------
g---------------------
d----------------6----
a-3----1----6----4-x5-
D-3-x5-1-x7-6-x5------

when guitar 1 is playing C# powerchord 
in chorus first time guit. 2 plays
e-----------
b-----------
g-5-5-6-5--
d--6-6-6-6-
a-----------
E-----------

when guitar 1 is playing C# powerchord 
in chorus second time guit. 2 plays
e---------
b---------
g---------
d---------
a-6-4-3h4-
D---------

Preverse(2nd verse)x2
e-----------
b-----------
g-3----5----
d-6----6----
a-6-x8-6-x8-
D-----------

Verse 2
e----------------------
b---------------------- first chord not P.M.
g----------------------only play first time
d-----------------6----to go into verse 2
a-3-3----1----6---4x32-
E-3-3x16-1x16-6x16-----
P.M.~~~~~~~~~~~~~~~~

guitar 2 (1:35)(clean)
e----------------------
b----------------------
g-5-----8-------5------
d--6-x4---6-x3----6-x3-
a----------------------
D----------------------

guitar 1(1:41) x2
e----------
b----------
g-6---5----
d-6x6-x-x4-
a-4---4----
D----------

guitar 2 faintly played(1:58)
e-------3------
b--------4-x-4-
g--------------
d-5------------
a--6-x4--------
D--------------

guitar 1(2:02) x2
e----------
b----------
g-6---5----
d-6x6-x-x4-
a-4---4----
D----------

guitar 2(2:02)play with guitar 1
e-8-\---
b----x4-
g--8/---
d-------
a-------
D-------

prechorus
guitar 1
e------
b------
g------
d-3-3/6-
a-1-1/4-
D-------

after guitar 1 plays the first Bm powerchord guitar 2 plays
e---------
b---------
g---------
d---------
a-4-4-4-4-
D---------

after guitar 1 plays C# powerchord guitar 2 plays
e---------
b---------
g---------
d-3-3-3-3-
a---------
E---------
[ Tab from: http://www.guitartabs.cc/tabs/a/ataris/in_this_diary_tab_ver_3.html ]
Chorus 2
guitar 1(x3)
e---------------------
b---------------------
g---------------------
d----------------6----
a-3----1----6----4-x5-
D-3-x5-1-x7-6-x5------

on fourth time guitar 1 plays
e----------
b----------
g----------
a-3----1---
d-3-x5-1-x5-

when guitar 1 is playing Bm powerchord(66||||) 
in chorus second time guit. 2 plays
e-8-8-9-8--
b----------
g--8-8-8-8-
d----------
a----------
D----------

when guitar 1 is playing C# powerchord
in chorus second time guit. 2 plays
e---------
b---------
g---------
d---------
a-6-4-3h4-
D---------

Breakdown(2:33)
e---------------------------
b---------------------------
g-3----5----3----5----6-----
d-6----6----6----6----6-----
a-6-x8-6-x8-6-x8-6-x8-6-x16-
D---------------------------

e------------------------
b------------------------
g------------------------
d-----------------6------
a-3----1----6-----4x32---
E-3x16-1x16-6x16---------
P.M.~~~~~~~~~~~~~~~~

While guitar 2 is playin the second part(chorus chords)
guitar 2 plays the intro with it(dont have # of strums)
e-------------
b-------------
g-5-8-5-6-5-6-
d-6-6-6-6 6-6-
a-6-6-6-4-4-4-
D-------------  feedback

Chorus 3
guitar 1(x2 then pause)
e---------------------
b---------------------
g---------------------
d----------------6----
a-3----1----6----4-x5-
D-3-x5-1-x7-6-x5------

when guitar 1 is playing Bm powerchord(66||||) 
in chorus second time playin whats above guit. 2 plays
e-8-8-9-8--
b----------
g--8-8-8-8-
d----------
a----------
D----------

after pause-
guitar 1(x1)
e---------------------
b---------------------
g---------------------
d----------------6----
a-3----1----6----4-x5-
D-3-x5-1-x7-6-x5------

when guitar 1 is playin C# powerchord first time
guitar 2 plays
e---------
b---------
g-8-6-5h6-
d---------
a---------
D---------

guitar 1
e--------------
b---------------
g---------------
d----------6----
a-3----1---4-x7-
D-3-x5-1-x5-----

pick scrape

guitar 1
e----------------------------------
b----------------------------------
g----------------------------------
d---------------6-------------6----
a-3----1----6---4-x6-3----1---4-x7-
D-3-x5-1-x6-6-x5-----3-x5-1-x6-----

guitar 2(played with guitar 1)
e---------------------------------------------------------------------
b-9-9-9-9-8-8-8-8-8-8-9-9-8-8-8-4-4-4-4-9-9-9-9-9-11-11-11-11-9-9-9-9-
g---------------------------------------------------------------------
d---------------------------------------------------------------------
a---------------------------------------------------------------------
D---------------------------------------------------------------------

Guitar 1
e-------------------------------
b-------------------------------
g-------------------------------
d---------------6-------------6~
a-3----1----6---4-x6-3----1---4~
D-3-x5-1-x6-6-x5-----3-x5-1-x6--

guitar 2(played with guitar 1 until end)
e---------------------------------------------------------------
b-9-9-9-9-8-8-8-8-8-8-9-9-8-8-8-4-4-4-4-9-9-9-9-9-11-11-11-11-9~
g---------------------------------------------------------------
d---------------------------------------------------------------
a---------------------------------------------------------------
D---------------------------------------------------------------

Well,thats it,its all in order,this took a long 
time and again the strumming isnt right,please 
rate this tab and put as many comments as you 
can,thanks
Comments