Ataris - Hey Kids Chords & Tabs

 

Hey Kids Chords & Tabs

Ataris Chords & Tabs

Version: 1 Type: Tab 0 ratings
1 star 2 stars 3 stars 4 stars 5 stars
comments

Hey Kids Tab

-Intro- 
e----------------------------------------------------------------| 
B----------------------------------------------------------------| 
G-----------x-7-x-7--x-9-x-9--x-5-x-4----------------------------| 
D--x-5-x-5--x-7-x-7--x-9-x-9--x-5-x-4----------------------------| 
A--x-5-x-5--x-5-x-5--x-7-x-7--x-3-x-2----------------------------| 
E--x-3-x-3-------------------------------------------------------| 


Verse (at the the of the bass riff do this) 
e----------------------------------------------------------------| 
B----------------------------------------------------------------| 
G--5-5-5--4-4-4--------------------------------------------------| 
D--5-5-5--4-4-4--5/----------------------------------------------| 
A--3-3-3--2-2-2--5/----------------------------------------------| 
E----------------3/----------------------------------------------| 

[ Tab from: http://www.guitartabs.cc/tabs/a/ataris/hey_kids_tab.html ]
-Chorus- 
e----------------------------------------------------------------| 
B----------------------------------------------------------------| 
G-----------7-7-7-7-7--9-9--7-7-7--5-5-4-4-----------------------| 
D--5-5-5-5--7-7-7-7-7--9-9--7-7-7--5-5-4-4-----------------------| 
A--5-5-5-5--5-5-5-5-5--7-7--5-5-5--3-3-2-2-----------------------| 
E--3-3-3-3-------------------------------------------------------| 

-Interlude (first part) 
e----------------------------------------------------------------| 
B----------------------------------------------------------------| 
G--9-9--12-12-11--9--7-5-5--5-5--7--5--7-------------------------| 
D--9-9--12-12-11--9--7-5-5--5-5--7--5--7--(or-X-this-line)-------| 
A--7-7--10-10--9--7--5-3-3--3-3--5--3--5-------------------------| 
E----------------------------------------------------------------| 

--- (second part) 
e--------------------------------|-first-time-|----second-time---| 
B--------------------------------|------------|------------------| 
G-----------7-7-7-7-7--9-9-9--7--|-5-5-5-5-5--|---------5--------| 
D--5-5-5-5--7-7-7-7-7--9-9-9--7--|-5-5-5-5-5--|---------5--------| 
A--5-5-5-5--5-5-5-5-5--7-7-7--5--|-3-3-3-3-3--|---------3--------| 
E--3-3-3-3-----------------------|------------|------------------| 
Comments