Ataris - Broken Promise Ring Chords & Tabs

 

Broken Promise Ring Chords & Tabs

Ataris Chords & Tabs

Version: 1 Type: Bass Tab 0 ratings
1 star 2 stars 3 stars 4 stars 5 stars
comments

Broken Promise Ring Bass Tab

   
Standard Tuning

Intro:
G------------------------------------------------------------------|
D------------------------------------------------------------------|
A--------------------------------------------------5-5-5-5-5-5-5-5-|
E5-5-5-5-5-5-5-5-4-4-4-4-4-4-4-4-2-2-2-2-2-2-2-2-------------------|

G---------------------------------------------------------------------|
D---------------------------------------------------------------------|
A-------------------------------------------------5~------------------|
E-5-5-5-5-5-5-5-5-4-4-4-4-4-4-4-4-2-2-2-2-2-2-2-2---     Repeat both--| 2x

Verse 1:
G---------------------------------------------------------------------------------|
D---------------------------------------------------------------------------------|
A---------------------7-7-7-7-7-7-7-7/9-9-9-9-7-7-7-7-5-5-5-5-5-5-5-5-------------|
E-5-5-5-5-5-5-5-5----------------------------------------------------     Repeat--| 2x

Prechorus:
G------------------|
D------------------|
A------------------|
E-2(12x)4-5-5555-5-|
[ Tab from: http://www.guitartabs.cc/tabs/a/ataris/broken_promise_ring_btab.html ]
Chorus:
G----------------------------|
D----------------------------|
A-------------------------5~-|
E-5-5555554-444444-2-2-2-2---|

G-----------------|
D-----------------|
A-------7-5-55-7~-|
E-7(x12)----------|

Verse 2:
G-------------------------------------------------------------------------------|
D-------------------------------------------------------------------------------|
A---------------------7-7-7-7-7-7-7-7/9-9-9-9-9-9-9-9-5-5-5-5-5-5-5-5-----------|
E-5-5-5-5-5-5-5-5----------------------------------------------------   Repeat--| x2

Repeat Prechorus and Chorus

Bridge
G-----------------------------------------|
D-----------------------------------------|
A----------------------5(14---------------|x)
E-5(14x)-4(14x)-2(14x)-------     Repeat--| 5x

G---------------------------|
D---------------------------|
A---------------------------|
E-5(14x)-4(14x)-2-222-2-222-|

G-----------------------------------------------|
D-----------------------------------------------|
A---------------------------5(14----------------|x)
E-5(14x)-4(14x)-2(14x)------------      Repeat--| 3x
Comments