Ataris - Boxcar Chords & Tabs

 

Boxcar Chords & Tabs

Ataris Chords & Tabs

Version: 1 Type: Tab 0 ratings
1 star 2 stars 3 stars 4 stars 5 stars
comments

Boxcar Tab

The Ataris - Boxcar
Ben Enos
TheBiggs11@aol.com

E|-----------------------------------------||
B|-----------------------------------------||
G|------6-6-------6-6-------6-6--8-8--6-6--||
D|-4-6--6-6--6-6--6-6--6-6--6-6--8-8--6-6--||
A|-4-6--4-4--6-6--4-4--6-6--4-4--6-6--4-4--||
E|-4-4-------4-4-------4-4-----------------||
(play 4 times)


E|------------------------------------------||
B|------------------------------------------||
G|------------------------------------------||
D|-6-6-6-6-8-8-8-8-10-10-10-10-10-10-10-10--||
A|-6-6-6-6-8-8-8-8-10-10-10-10-10-10-10-10--||
E|-4-4-4-4-6-6-6-6-8--8--8--8--8--8--8--8---||
(play twice)


E|------------------||
B|------------------||
G|-----6-6-----6-6--||
D|-6-6-6-6-6-6-6-6--||
A|-6-6-4-4-6-6-4-4--||
E|-4-4-----4-4------||


E|--------------------------------------------------||
B|--------------------------------------------------||
G|-----------------------------------------------6--||
D|-6-6-6-6-8-8-8-8-10-10-10-10-11-11-11-11---6---6--||
A|-6-6-6-6-8-8-8-8-10-10-10-10-11-11-11-11---6---4--||
E|-4-4-4-4-6-6-6-6-8--8--8--8--9--9--9--9----4------||


E|-----------------------------------------||
B|-----------------------------------------||
G|------6-6-------6-6-------6-6--8-8--6-6--||
D|-4-6--6-6--6-6--6-6--6-6--6-6--8-8--6-6--||
A|-4-6--4-4--6-6--4-4--6-6--4-4--6-6--4-4--||
E|-4-4-------4-4-------4-4-----------------||
(play 3 times)


E|------------------------------------------||
B|------------------------------------------||
G|------------------------------------------||
D|-6-6-6-6-8-8-8-8-10-10-10-10-10-10-10-10--||
A|-6-6-6-6-8-8-8-8-10-10-10-10-10-10-10-10--||
E|-4-4-4-4-6-6-6-6-8--8--8--8--8--8--8--8---||
(play twice)

[ Tab from: http://www.guitartabs.cc/tabs/a/ataris/boxcar_tab.html ]
E|------------------||
B|------------------||
G|-----6-6-----6-6--||
D|-6-6-6-6-6-6-6-6--||
A|-6-6-4-4-6-6-4-4--||
E|-4-4-----4-4------||


E|--------------------------------------------------||
B|--------------------------------------------------||
G|-----------------------------------------------6--||
D|-6-6-6-6-8-8-8-8-10-10-10-10-11-11-11-11---6---6--||
A|-6-6-6-6-8-8-8-8-10-10-10-10-11-11-11-11---6---4--||
E|-4-4-4-4-6-6-6-6-8--8--8--8--9--9--9--9----4------||


E|-----------------------------------------||
B|-----------------------------------------||
G|------6-6-------6-6-------6-6--8-8--6-6--||
D|-4-6--6-6--6-6--6-6--6-6--6-6--8-8--6-6--||
A|-4-6--4-4--6-6--4-4--6-6--4-4--6-6--4-4--||
E|-4-4-------4-4-------4-4-----------------||
(play 2 times)


E|-------------------------------------------||
B|-------------------------------------------||
G|------6-6-------6-6-------6-6--8-8--6-6----||
D|-4-6--6-6--6-6--6-6--6-6--6-6--8-8--6-6--6-||
A|-4-6--4-4--6-6--4-4--6-6--4-4--6-6--4-4--6-||
E|-4-4-------4-4-------4-4-----------------4-||
(end with this)


You're not punk, and I'm telling everyone
Save your breath, I never was one
You don't know what I'm all about
Like killing cops and reading Kerouac
My enemies are all too familiar
They're the ones who used to call me friend
I'm coloring outside your guidelines
I was passing out when you were passing our your rules
One, Two, Three, Four,
Who's punk, what's the score

Got a friend.
Her name is Boxcar
Cigarettes and beer in El Sob
Her hair was blue, but now it's green
I like her mind
She hates the scene

My enemies are all too familiar
They're the ones who used to call me friend
I'm coloring outside your guidelines
I was passing out when you were passing our your rules
One, Two, Three, Four,
Who's punk, what's the score

You're all alone
Comments