Ataris - Alone In Santa Cruise Chords & Tabs

 

Alone In Santa Cruise Chords & Tabs

Ataris Chords & Tabs

Version: 1 Type: Bass Tab 0 ratings
1 star 2 stars 3 stars 4 stars 5 stars
comments

Alone In Santa Cruise Bass Tab

Standard Tuning

Intro
G|-----------------------|
D|-----------------------|
A|--7(13x)--7--7--7-6----|
E|-----------------------|

Verse 1
G|--------------------------------------------------|
D|------------7*---4*--2----------------------------|
A|--5*---7*---------------5*---7*---0(7x)---7#--6---|
E|--------------------------------------------------|

Verse 2
G|--------------------------------------------------|
D|------------7*---4*--2----------------------------|
A|--5*---7*---------------5*---7*---0(7x)---7#--8---|
E|--------------------------------------------------|
[ Tab from: http://www.guitartabs.cc/tabs/a/ataris/alone_in_santa_cruise_btab.html ]
Chorus              (3x)
G|---------------------|-----------------------------|
D|---------------------|-----------------------------|
A|--9#---4#---5#---7#--|--9#---4#---5#---7--7--7-6---|
E|---------------------|-----------------------------|

Repeat verse 1

Verse 3
G|------------------7--6-----------------------------------------------|
D|---------7--7--7--------7--4--4--4--7--6-----------------------------|
A|5*---7*-----------------------------------7---5*---7*---0(7x)---7#--8|
E|---------------------------------------------------------------------|

Chorus 2
G|------------------------------------|
D|--------------------6--7--9--7--6---|
A|--9#---4#---5#---7------------------|
E|------------------------------------|

Repeat chorus 1, first part x2
repeat verse 1

Outro
G|------------------------------------------|
D|------------7--------4*--2----------------|
A|--5*---7*-------------------5*---7*---0---|
E|------------------------------------------|
Comments