Ataris - All You Can Ever Learn Is What You Already Know Chords & Tabs

 

All You Can Ever Learn Is What You Already Know Chords & Tabs

Ataris Chords & Tabs

Version: 2 Type: Tab 0 ratings
1 star 2 stars 3 stars 4 stars 5 stars
comments

All You Can Ever Learn Is What You Already Know Tab

   
All You Can Ever Learn Is What You Already Know

. = palm mute
~ = let ring
(note: | are not bar lines, they're just dividers)

Intro

  Guitar 1(distorted)
e|---------------------------------|---------------------|
B|---------------------------------|---------------------|
G|---------------------------------|---------------------|
D|------------------------7--------|--4--4--4--4--5---4--|
A|-5-5-5-5-5-5-5-5--5-5-5---5-5-5--|---------------------|
E|---------------------------------|---------------------|
 | \______________________________/ \___________________/
 | \               3x                           1x      /
 |  \__________________________________________________/
 |  	                       2x
 |Guitar 2(distorted)
e|---------------------------------|---------------------|
B|---------------------------------|---------------------|
G|-7-7-7-7-7-7-7-7-----------------|---------------------|
D|-7-7-7-7-7-7-7-7-4-4-4-4-5-5-5-5-|--2--2--2--2--5---4--|
A|-5-5-5-5-5-5-5-5-4-4-4-4-5-5-5-5-|--2--2--2--2--5---4--|
E|-----------------2-2-2-2-3-3-3-3-|--0--0--0--0--3---2--|
  \______________________________/  \___________________/
  \              3x                           1x         /
   \____________________________________________________/
	                       2x


Verse
Guitar 2(clean)
e|----------------------|
B|----------------------|
G|-7~----4~-------------|
D|-7~----4~----5~----7~-|
A|-5~----2~----5~----7~-|
E|-------------3~----5~-|
   ^
  (this chord is played distorted and may be taken as part of the intro)

  Guitar 1(clean)
e|-----------------------------------------------------------------|
B|-3-------3-------2-------2-------3-------3-------5-------5-------|
G|---2-------2-------2-------2-------2-------2-------2-------2-----|
D|-----------------------------------------------------------------|
A|-----------------------------------------------------------------|
E|-----------------------------------------------------------------|
 |
 |Guitar 2
e|-----------------------------------------------------------------|
B|-----------------------------------------------------------------|
G|-7-7-7-7-7-7-7-7-4-4-4-4-4-4-4-4---------------------------------|
D|-7-7-7-7-7-7-7-7-4-4-4-4-4-4-4-4-5-5-5-5-5-5-5-5-7-7-7-7-7-7-7-7-|
A|-5-5-5-5-5-5-5-5-2-2-2-2-2-2-2-2-5-5-5-5-5-5-5-5-7-7-7-7-7-7-7-7-|
E|---------------------------------3-3-3-3-3-3-3-3-5-5-5-5-5-5-5-5-|
   ...............................................................

Pre-Chorus
Guitar 1(clean)
e|-----------------------------------------------------------------|
B|-3-------3-------3-------3-------2-------2-------2-------2-------|
G|---2-------2--------2------2-------2-------2-------2-------2-----|
D|-----------------------------------------------------------------|
A|-----------------------------------------------------------------|
E|-----------------------------------------------------------------|
 |
 |Guitar 2(distorted)
e|-----------------------------------------------------------------|
B|-----------------------------------------------------------------|
G|-----------------------------------------------------------------|
D|-5-5-5-5-5-5-5-5-5-5-5-5-5-5-5-5-7-7-7-7-7-7-7-7-7-7-7-7-7-7-7-7-|
A|-5-5-5-5-5-5-5-5-5-5-5-5-5-5-5-5-7-7-7-7-7-7-7-7-7-7-7-7-7-7-7-7-|
E|-3-3-3-3-3-3-3-3-3-3-3-3-3-3-3-3-5-5-5-5-5-5-5-5-5-5-5-5-5-5-5-5-|
   ...............................

Chorus
  Guitar 1
e|-----------------------------------------------------------------|-------------------------|
B|-----------------------------------------------------------------|-------------------------|
G|-----------------------------------------------------------------|-------------------------|
D|-4-4-4-4-4-4-4-4-7-7-7-7-7-7-7-7-5-5-5-5-4-4-4-4-0-0-0-0-5-5-5-5-|-2-----7-----5-4-2-----7-|
A|-----------------------------------------------------------------|-2-----7-----5-4-2-----7-|
E|-----------------------------------------------------------------|-0-----5-----3-2-0-----5-|
 | \_______________________________________________________________/ \_______________________/
 |	                             2x                                           1x
 |
 |Guitar 2(distorted)
e|-----------------------------------------------------------------|-------------------------|
B|-----------------------------------------------------------------|-------------------------|
G|-4-4-4-4-4-4-4-4-7-7-7-7-7-7-7-7---------------------------------|-------------------------|
D|-4-4-4-4-4-4-4-4-7-7-7-7-7-7-7-7-5-5-5-5-5-5-5-5-5-5-5-5-5-5-5-5-|-2-----7-----5-4-2-----7-|
A|-2-2-2-2-2-2-2-2-5-5-5-5-5-5-5-5-5-5-5-5-5-5-5-5-5-5-5-5-5-5-5-5-|-2-----7-----5-4-2-----7-|
E|---------------------------------3-3-3-3-3-3-3-3-3-3-3-3-3-3-3-3-|-0-----5-----3-2-0-----5-|
  \_______________________________________________________________/ \_______________________/
 	                             2x						    1x
Intro
  Guitar 1(distorted)
e|---------------------------------|---------------------|
B|---------------------------------|---------------------|
G|---------------------------------|---------------------|
D|------------------------7--------|--4--4--4--4--5---4--|
A|-5-5-5-5-5-5-5-5--5-5-5---5-5-5--|---------------------|
E|---------------------------------|---------------------|
 | \______________________________/ \___________________/
 |                3x                           1x
 |
 |Guitar 2(distorted)
e|---------------------------------|---------------------|
B|---------------------------------|---------------------|
G|-7-7-7-7-7-7-7-7-----------------|---------------------|
D|-7-7-7-7-7-7-7-7-4-4-4-4-5-5-5-5-|--2--2--2--2--5---4--|
A|-5-5-5-5-5-5-5-5-4-4-4-4-5-5-5-5-|--2--2--2--2--5---4--|
E|-----------------2-2-2-2-3-3-3-3-|--0--0--0--0--3---2--|
   \______________________________/  \___________________/
                  3x                           1x

Verse
  Guitar 2
e|---------------------------------|
B|---------------------------------|
G|---------------------------------|
D|-7---7---7---7---7---7---7---7---|
A|---5---5---5---5---5---5---5---5-|
E|---------------------------------|
  ...............................

  Guitar 2
e|-------------------|
B|-------------------|
G|-4-----------------|
D|-4-16x-5-----7-----|
A|-2-----5-16x-7-16x-|
E|-------3-----5-----|
   .................

  Guitar 1
e|-----------------------------------------------------------------|
B|-3-------3-------2-------2-------3-------3-------5-------5-------|
G|---2-------2-------2-------2-------2-------2-------2-------2-----|
D|-----------------------------------------------------------------|
A|-----------------------------------------------------------------|
E|-----------------------------------------------------------------|
 |
 |Guitar 2
e|-----------------------------------------------------------------|
B|-----------------------------------------------------------------|
G|-7-7-7-7-7-7-7-7-4-4-4-4-4-4-4-4---------------------------------|
D|-7-7-7-7-7-7-7-7-4-4-4-4-4-4-4-4-5-5-5-5-5-5-5-5-7-7-7-7-7-7-7-7-|
A|-5-5-5-5-5-5-5-5-2-2-2-2-2-2-2-2-5-5-5-5-5-5-5-5-7-7-7-7-7-7-7-7-|
E|---------------------------------3-3-3-3-3-3-3-3-5-5-5-5-5-5-5-5-|
   ...............................................................
[ Tab from: http://www.guitartabs.cc/tabs/a/ataris/all_you_can_ever_learn_is_what_you_already_know_tab_ver_2.html ]
Pre-Chorus
  Guitar 1(clean)
e|-----------------------------------------------------------------|
B|-3-------3-------3-------3-------2-------2-------2-------2-------|
G|---2-------2-------2-------2-------2-------2-------2-------2-----|
D|-----------------------------------------------------------------|
A|-----------------------------------------------------------------|
E|-----------------------------------------------------------------|
 |
 |Guitar 2(distorted)
e|-----------------------------------------------------------------|
B|-----------------------------------------------------------------|
G|-----------------------------------------------------------------|
D|-5-5-5-5-5-5-5-5-5-5-5-5-5-5-5-5-7-7-7-7-7-7-7-7-7-7-7-7-7-7-7-7-|
A|-5-5-5-5-5-5-5-5-5-5-5-5-5-5-5-5-7-7-7-7-7-7-7-7-7-7-7-7-7-7-7-7-|
E|-3-3-3-3-3-3-3-3-3-3-3-3-3-3-3-3-5-5-5-5-5-5-5-5-5-5-5-5-5-5-5-5-|
   ...............................

Chorus
  Guitar 1
e|-----------------------------------------------------------------|-------------------------|
B|-----------------------------------------------------------------|-------------------------|
G|-----------------------------------------------------------------|-------------------------|
D|-4-4-4-4-4-4-4-4-7-7-7-7-7-7-7-7-5-5-5-5-4-4-4-4-0-0-0-0-5-5-5-5-|-2-----7-----5-4-2-----7-|
A|-----------------------------------------------------------------|-2-----7-----5-4-2-----7-|
E|-----------------------------------------------------------------|-0-----5-----3-2-0-----5-|
 |\_______________________________________________________________/ \_______________________/
 |	                             2x                          1x
 |
 |Guitar 2(distorted)
e|-----------------------------------------------------------------|-------------------------|
B|-----------------------------------------------------------------|-------------------------|
G|-4-4-4-4-4-4-4-4-7-7-7-7-7-7-7-7---------------------------------|-------------------------|
D|-4-4-4-4-4-4-4-4-7-7-7-7-7-7-7-7-5-5-5-5-5-5-5-5-5-5-5-5-5-5-5-5-|-2-----7-----5-4-2-----7-|
A|-2-2-2-2-2-2-2-2-5-5-5-5-5-5-5-5-5-5-5-5-5-5-5-5-5-5-5-5-5-5-5-5-|-2-----7-----5-4-2-----7-|
E|---------------------------------3-3-3-3-3-3-3-3-3-3-3-3-3-3-3-3-|-0-----5-----3-2-0-----5-|
  \_______________________________________________________________/ \_______________________/
						2x				1x

Bridge
  Guitar 1
e|---------------------------------------------------|
B|---------------------------------------------------|
G|---------------------------------------------------|
D|-4-4---4-4-4--7-7---7-7-7--5-5-5-4-4-4-0-0-0-5-5-5-|
A|---------------------------------------------------|
E|---------------------------------------------------|
 |\_________________________________________________/
 |	                    2x
 |Guitar 2
e|-------------------------------------------------------------------------------------|
B|-------------------------------------------------------------------------------------|
G|-4-4---4-4-4--7-7---7-7-7----------------------------4-4---4-4-4--7-7---7-7-7--------|
D|-4-4---4-4-4--7-7---7-7-7--5-5---5-5-5--5-5---5-5-5--4-4---4-4-4--7-7---7-7-7--5-----|
A|-2-2---2-2-2--5-5---5-5-5--5-5---5-5-5--5-5---5-5-5--2-2---2-2-2--5-5---5-5-5--5-16x-|
E|---------------------------3-3---3-3-3--3-3---3-3-3----------------------------3-----|

  Guitar 2
e|-------------------------|
B|-------------------------|
G|-------------------------|
D|-2-----7-----5-4-2-----7-|
A|-2-----7-----5-4-2-----7-|
E|-0-----5-----3-2-0-----5-|

  Guitar 2
e|----------------------------------------------------|
B|----------------------------------------------------|
G|-4-4---4-4-4--7-7---7-7-7---------------------------|
D|-4-4---4-4-4--7-7---7-7-7--5-5---5-5-5--5-5---5-7-7-|
A|-2-2---2-2-2--5-5---5-5-5--5-5---5-5-5--5-5---5-7-7-|
E|---------------------------3-3---3-3-3--3-3---3-5-5-|
  \__________________________________________________/
			            2x
Outro
  Guitar 1
e|-----------------------------------------------------------------|---|
B|-----------------------------------------------------------------|---|
G|-----------------------------------------------------------------|---|
D|-4-4-4-4-4-4-4-4-7-7-7-7-7-7-7-7-5-5-5-5-4-4-4-4-0-0-0-0-5-5-5-5-|-2-|
A|-----------------------------------------------------------------|-2-|
E|-----------------------------------------------------------------|-0-|
 | \_______________________________________________________________/
 |						6x
 |
 |Guitar 2
e|-----------------------------------------------------------------|---|
B|-----------------------------------------------------------------|---|
G|-4-4-4-4-4-4-4-4-7-7-7-7-7-7-7-7---------------------------------|---|
D|-4-4-4-4-4-4-4-4-7-7-7-7-7-7-7-7-5-5-5-5-5-5-5-5-5-5-5-5-7-7-7-7-|-2-|
A|-2-2-2-2-2-2-2-2-5-5-5-5-5-5-5-5-5-5-5-5-5-5-5-5-5-5-5-5-7-7-7-7-|-2-|
E|---------------------------------3-3-3-3-3-3-3-3-3-3-3-3-5-5-5-5-|-0-|
  \_______________________________________________________________/
						6x

Here are the chords and indication where to play them, to make it easier to understand

  D   B   G   A   F#  E
|-----------------------|
|-----------------------|
|-7---4-----------------|
|-7---4---5---7---4---2-|
|-5---2---5---7---4---2-|
|---------3---5---2---0-|


D		      		 B
Is this how it was intended?
                 G
The sunrise over smoke stacks in the Midwest
    A
The beauty of the abandoned factory
D         B               G              A                   G
Christmas lights blinking on and off all out of time in what used to be
     A                                         B
Your pink house dreams of a Middle class America

    D        G               B
I'm trying to believe in you
              A              G                                         E
But all these satellites and shattered dreams are blocking out my view
                 A  GF#E
Please don't forget who we really are
       A
'Cause nothing really matters when we're gone

                           B
Fell in love with his Keno waitress
                    G
They honeymooned in Memphis
          A			         D
They were married by the drive up window
	B	    G		 A            G
Trailer parks, neon signs and an empty box of low key strikes
A					          B
All used up on the dashboard of America


    D        G               B
I'm trying to believe in you
              D			  G				   E
But his world slid it's faith for parking-lots and drunk sincerity
	         A    G   F#    E
Please don't forget how small we really are
A
Nothing really matters when we're...

You'll be saddened to know
    D				      G
The train tracks you once walked as a young boy

Are now nothing but a graveyard


	         A    G   F#    E
Please don't forget how small we really are
A
Nothing really matters when we're gone


    A	    G
I'm trying to believe in you
Comments