Ataris - 1 15 96 Chords & Tabs

 

Ataris Chords & Tabs

Version: 1 Type: Tab 0 ratings
1 star 2 stars 3 stars 4 stars 5 stars
comments

1 15 96 Tab

   
Song : 1*15*96
Band : Ataris
Tabbed By : Xing
Xing is macked out

guitar 1 riff 1:  | riff 2:
e|----------------|--------------------------------------------------|
b|----------------|--------------------------------------------------|
g|--12(p)11(x16)--|--12(p)11-(x8)-7/9--9-7--/5-----------------------|
D|----------------|--------------------------------------------------|
A|----------------|--------------------------------------------------|
E|----------------|--------------------------------------------------|

-guitar 1 repeat riff 2 (3x)

guitar 2
e|----------------------|--------------------------------------------|
b|----------------------|--------------------------------------------|
g|--(rest for 8 counts)-|-12(p)11-(8x)-------------------------------|
D|----------------------|--------------------------------------------|
A|----------------------|--------------------------------------------|
E|----------------------|--------------------------------------------|

guitar 2 riff 3:
e|-------------------------------------------------------------------|
b|--12--12--10--10--8--8--7--7----5----------------------------------|
g|----12--12--11--11--9--9--7--7-5------5--5--/7---------------------|
D|-------------------------------------------------------------------|
A|-------------------------------------------------------------------|
E|-------------------------------------------------------------------|

guitar 2 riff 4:
e|-------------------------------------------------------------------|
b|--12--12--10--10--12--12--12h13p12---12----12----10----10----------|
g|----12--12--11--11--12--12--------12----12----12----11----11-------|
D|-------------------------------------------------------------------|
A|-------------------------------------------------------------------|
E|-------------------------------------------------------------------|

-guitar 2 repeat g2 riff 3 and 4

both guitars riff 5: (play twice)
e|-------------------------------------------------------------------|
b|-------------------------------------------------------------------|
g|--12--------12/5-------5/7-7---------------------------------------|
D|--12--------12/5-------5/5-5---------------------------------------|
A|--10--------10/3-------3/5-5---------------------------------------|
E|-------------------------------------------------------------------|

Verse 1: "Let me start this..."

both guitars riff 6: (play twice)
e|-------------------------------------------------------------------|
b|-------------------------------------------------------------------|
G|-121212121212121212121212121212125555555555555777------------------|
D|-121212121212121212121212121212125555555555555777------------------|
A|-101010101010101010101010101010103333333333333555------------------|
E|-------------------------------------------------------------------|
    PM..............................................

-both guitars play riff 2 (x2)

Chorus 1: "Angie I'm sorry..."

both guitars
e|-------------------------------------------------------------------|
B|-------------------------------------------------------------------|
G|---------------5-7-7777777777775---------------5-7-777777777777----|
D|-5-5555555555555-7-7777777777775-5-5555555555555-7-777777777777----|
A|-5-5555555555553-5-5555555555553-5-5555555555553-5-555555555555----|
E|-3-333333333333------------------3-333333333333--------------------|

guitar 1
e|-------------------------------------------------------------------|
b|-------------------------------------------------------------------|
g|-4-999-111111-121212-121214-(12-11-x8)--14-------------------------|
D|-4-999--x-x-x--x-x-x--x-x-x----------------------------------------|
A|-2-777--9-9-9-101010-101012----------------------------------------|
E|-------------------------------------------------------------------|

guitar 2
e|-------------------------------------------------------------------|
b|-------------------------------------------------------------------|
g|-4-9-9999999999997-5-55555555555577--------------------------------|
D|-4-9-9999999999997-5-55555555555577--------------------------------|
A|-2-7-7777777777775-3-33333333333355--------------------------------|
E|-------------------------------------------------------------------|


-guitar 1 play riff 2(x2)
-guitar 2 play riff 3, riff 4

Verse 2: "I sometimes think about..."

-both guitars play bg riff 5(2x)

guitar 1  riff 1 varied:
e|-------------------------------------------------------------------|
b|-------------------------------------------------------------------|
g|-12-11-12-11-x-12-12-11-12-11-12-11-x-12-12-11---------------------|
D|-------------------------------------------------------------------|
A|-------------------------------------------------------------------|
E|-------------------------------------------------------------------|

-guitar 1 play riff 1 (only 8x not 16)

guitar 2 riff 7:
e|------------------------------------------------------------------|
b|------------------------------------------------------------------|
g|-1212121277779999-------------------------------------------------|
D|-1212121277779999999910101010101010101010101010121212-------------|
A|-1010101055557777999910101010101010101010101010121212-------------|
E|-----------------7777-8-8-8-8-8-8-8-8-8-8-8-8-8101010-------------|

-guitar 1 play riff 1 varied
e|------------------------------------------------------------------|
b|------------------------------------------------------------------|
g|--12-11-12-11-12-11-12-11-12-11-12-11-12/14-14-14-----------------|
D|------------------------------------------------------------------|
A|------------------------------------------------------------------|
E|------------------------------------------------------------------|

-guitar 2 repeat riff 7

Bridge:
[ Tab from: http://www.guitartabs.cc/tabs/a/ataris/1_15_96_tab.html ]
guitar 1
e|------------------------------------------------------------------|
b|------------------------------------------------------------------|
g|-121212--121212-11-121212--121212-14-141414--14141514-1414/141211-|
D|--x-x-x---x-x-x--x--x-x-x---x-x-x--x--x-x-x---x-x-x-x--x-x/-x-x-x-|
A|-101010--101010--9-101010--101010-12-121212--12121312-1212/1210-9-|
E|------------------------------------------------------------------|

guitar 1
e|------------------------------------------------------------------|
b|------------------------------------------------------------------|
g|-12121212121212-11-12121212121212-14-1414141414141514-1414/141211-|
D|--x-x-x-x-x-x-x--x--x-x-x-x-x-x-x--x--x-x-x-x-x-x-x-x--x-x/-x-x-x-|
A|-10101010101010--9-10101010101010-12-1212121212121312-1212/1210-9-|
E|------------------------------------------------------------------|

guitar 2 (2x)
e|------------------------------------------------------------------|
b|------------------------------------------------------------------|
g|--999--999-7--555--555-7--121212--12121212--77--778---------------|
D|--999--999-7--555--555-7--121212--12121212--77--778---------------|
A|--777--777-5--333--333-5--101010--10101010--55--556---------------|
E|------------------------------------------------------------------|


-both guitars play riff 5 (2x)

-guitar 1 play riff 6 (2x)
-guitar 2 play riff 7 (2x) palm muted

guitar 1 (play 3 times)
e|------------------------------------------------------------------|
b|------------------------------------------------------------------|
g|--12--------------------------------------------------------------|
D|--12---------910--------------------------------------------------|
A|--10/(5)/(7)-910--------------------------------------------------|
E|-------------7-8787878787878/99-----------------------------------|

guitar 2 (play 3 times)
e|-------------------------------------------------------------------|
b|-------------------------------------------------------------------|
g|--12---------------------------------------------------------------|
D|--12---------9101010101010101010101010101212-----------------------|
A|--10---------9101010101010101010101010101212-----------------------|
E|-------------7-8-8-8-8-8-8-8-8-8-8-8-8-81010-----------------------|

guitar 1
e|-------------------------------------------------------------------|
b|-------------------------------------------------------------------|
g|--12121212--------99999--------------------------------------------|
D|--121212121212121299999-910101010101010101010101010/1111-----------|
A|--101010101212121277777-910101010101010101010101010/1111-----------|
E|----------10101010------7-8-8-8-8-8-8-8-8-8-8-8-8-8/-9-9-----------|
  PM......................   ......................

guitar 2
e|-------------------------------------------------------------------|
b|-------------------------------------------------------------------|
g|--12121212121212121212121212121212---------------------------------|
D|--12121212121212121212121212121212-910101010101010101010101010/1111|
A|--10101010101010101010101010101010-910101010101010101010101010/1111|
E|-----------------------------------7-8-8-8-8-8-8-8-8-8-8-8-8-8/-9-9|
  PM................................    ......................

Chorus 2: "Angie I'm sorry..."

both guitars
e|-------------------------------------------------------------------|
B|-------------------------------------------------------------------|
G|---------------5-7-7777777777775---------------5-7-777777777777----|
D|-5-5555555555555-7-7777777777775-5-5555555555555-7-777777777777----|
A|-5-5555555555553-5-5555555555553-5-5555555555553-5-555555555555----|
E|-3-333333333333------------------3-333333333333--------------------|

guitar 1
e|-------------------------------------------------------------------|
b|-------------------------------------------------------------------|
g|-4-999-111111-121212-121214-(12-11-x8)--14-------------------------|
D|-4-999--x-x-x--x-x-x--x-x-x----------------------------------------|
A|-2-777--9-9-9-101010-101012----------------------------------------|
E|-------------------------------------------------------------------|

guitar 2
e|-------------------------------------------------------------------|
b|-------------------------------------------------------------------|
g|-4-9-9999999999997-5-55555555555577--------------------------------|
D|-4-9-9999999999997-5-55555555555577--------------------------------|
A|-2-7-7777777777775-3-33333333333355--------------------------------|
E|-------------------------------------------------------------------|

-guitar 2 play riff 7 (x4)
-guitar 1 play riff 2 (x2)
-guitar 1 play riff 1 varied

guitar 1
e|------------------------------------------------------------------|
b|------------------------------------------------------------------|
g|--12-11-12-11-12-11-12-11-12-11-12-11-12/14-14-14-----------------|
D|------------------------------------------------------------------|
A|------------------------------------------------------------------|
E|------------------------------------------------------------------|

guitar 2
e|------------------------------------------------------------------|
b|------------------------------------------------------------------|
g|-1212121277779999-------------------------------------------------|
D|-12121212777799999999101010101010101010101010101011107----5-------|
A|-10101010555577779999101010101010101010101010101011107----5-------|
E|-----------------7777-8-8-8-8-8-8-8-8-8-8-8-8-8-8-9-85----3-------|

guitar 1
e|------------------------------------------------------------------|
b|------------------------------------------------------------------|
g|--12(p)11-(x8)-7/9--9-7--5--7--5--2-------2/4---------------------|
D|------------------------------------------------------------------|
A|------------------------------------------------------------------|
E|------------------------------------------------------------------|
Comments