At The Gates - Nausea Chords & Tabs

 

Nausea Chords & Tabs

At The Gates Chords & Tabs

Version: 1 Type: Tab 0 ratings
1 star 2 stars 3 stars 4 stars 5 stars
comments

Nausea Tab

   
                         AT THE GATES - NAUSEA
                      From "Slaughter of the Soul"            
                              Version 1.0

Transcribed by: Justin Simms

For Questions, Comments, Corrections, Requests
please contact at reaper@slayerized.com

Check out The Reaper's Metal Tablature Archive at
      http://internettrash.com/users/thereaper/

.  - palm mute                          /  - slide up to
\  - slide down to                      ~  - vibrato
"  - tremelo picking                    () - ghost note
p  - pull off                           h  - hammer-on 
tr - trill notes                        fb - full bend (1step)
< > - harmonic

At the Gates - Nausea

Tune 2.5 steps down

Riff A
|------------------------------------|
|------------------------------------|
|------------------------------------|
|----------------------------------8-|
|-000000-3p2p0-000-3p2p0-3p2p0-000-6-|
|------------------------------------|

Riff A - 6x

Riff B
|--------------------------|
|--------------------------|
|--------------------------|
|------------------------3-|
|------------------------1-|
|-0000-320-00-320-320-00---|
  .... ... .. ... ... ..

Riff B - 2x
Riff A - 4x
Riff B - 2x
[ Tab from: http://www.guitartabs.cc/tabs/a/at_the_gates/nausea_tab.html ]
Riff C
|---------------------------------------------------|
|---------------------------------------------------|
|---------------------------------------------------|
|---------------------------------------------------|Gtr I
|-10-7---10-7---9-6---9-6-------7-----7-------------|
|------7------7-----7-----7-7-8---7-8---8-5-7-8-5-8-|
                                         
|---------------------------------------------------|   
|---------------------------------------------------|   
|---------------------------------------------------|   
|---------------------------------------------------|Gtr II
|-10------------------------------------------9--7--|
|---------------7---------3-------------2-----------|

Riff C - 2x
Riff B - 4x
Riff A - 4x
Riff B - 2x
Riff C - 2x

Riff D
|-----------------------------------------|
|-----------------------------------------|
|-----------------------------------------|
|-4----4----4---3----3----3---4----4----4-|
|-2----2----2---1----1----1---2----2----2-|
|---00---00---0---00---00---0---00---00---|

Fill 1
|---------------|
|---------------|
|---------------|
|---------------|
|-------2-2\1-5-|
|-2-3-5---------|
  . . . .

Fill 2
|------------|
|------------|
|------------|
|------------|
|----------2-|
|-3~-0-2-3---|
     . . .

Riff D with Fill 1 - 1x
Riff D with Fill 2 - 1x
Riff D with Fill 1 - 1x
Riff D with Fill 2 - 1x

Played under solo
|-------------------------------------|
|-------------------------------------|
|-------------------------------------|
|-------------------------------------|
|----------22222222-------------------|
|-333333322--------332200003300000000-| 
  ...................................

Solo
|-----------------------------------------------------------------12~-|
|---------------------------------16~--------------------11----11-----|
|-17p16-14--14-16--17p16-14-16-17-------------------9-12----12--------|
|------------------------------------------9-10-9-9-------------------|
|---------------------------------------10----------------------------|
|---------------------------------------------------------------------|

|-22~-|
|-----|
|-----|
|-----|
|-----|
|-----|

Riff C - 2x
Riff D - 5x alternating fills
Riff D - 1x with Outro

Outro
|-------------|
|-------------|
|-------------|
|-----4-------|
|-----2-----2-|
|-333---333-0-|
  ...   ...
Comments