At The Gates - Cold Chords & Tabs

 

Cold Chords & Tabs

At The Gates Chords & Tabs

Version: 1 Type: Tab 1 rating
1 star 2 stars 3 stars 4 stars 5 stars
comments

Cold Tab

   
				
                        	
Artist: At The Gates
Title: Cold
Album: Slaugther of the soul
Transcribed by: Goatslayer
Email: Geten@thegates.com


TUNING: B E A d f# B 

Riff A
|----------------------------------------------------------------------|
|----------------------------------------------------------------------|
|----------------------------------------------------------------------|
|--5------------4---7---------3------5------------4---7---------3------|
|--3---5-4-2----2---5-5-4-5-4-1------3---5-4-2----2---5-5-4-5-4-1------|
|------3-2-0----------3-2-3-2------------3-2-0----------3-2-3-2--------|
       - -            - - - -            - -            - - - -   

Riff B main. 	        play 2 times with:  first time       second time
|-----------------------------------------|--------------|--------------|
|-----------------------------------------|--------------|--------------|
|-----------------------------------------|--------------|--------------|
|----------4--5--5------------------------|-5--5--4--4---|-55----44-----|
|-7--7--7-----------2--2h5p2-6--6--6--6---|--77-77-66-66-|---777----666-|
|--00-00-00-00-00-00-00-------88-88-88-88-|--------------|--------------|
					     -- -- -- --     ---    ---

Riff C play 1 and 3	      play 
|-----------------------------|------------------------------
|-----------------------------|------------------------------
|-----------------------------|------------------------------
|-------------------------454-|-55-----55-----55-----5-------
|-22-----22-----22-----22-----|-33-333-33-333-33-333-3-5-4---
|-00-000-00-000-00-000-00-232-|------------------------3-2---
     ---    ---    ---             ---    ---    ---   

Riff C 
|----------------|
|----------------|GTRS
|----------------|1&2
|-4--7---------3-|
|-2--5-5-4-5-4-1-|
|------3-2-3-2---|
       - - - -

Play Riff B 1 Time


Riff d
|-------------------------------------------------------------------------|
|-------------------------------------------------------------------------|
|--9------11-12---------14----12--11----9----11--12---------14----12--11--| 1
|-----------------9-----------------------------------9-------------------|
|--7-------9-10---------12----10---9----7-----9--10---------12----10---9--|
|-----------------7-----------------------------------7-------------------|
|
|-------------------------------------------------------------------------|
|-------------------------------------------------------------------------|
|--9-------------------------------8----9------------------------------8--| 2
|-----------------9-----10-----9----------------------9-----10-----9------|
|--7-------------------------------6----7------------------------------6--|
|-----------------7------8-----7----------------------7------8-----7------|

Play Riff C 1 Time
Play Riff B 1 Time
Play Riff D 1 Time
[ Tab from: http://www.guitartabs.cc/tabs/a/at_the_gates/cold_tab.html ]
Riff E                                                         GTR 1
|------------------------------------------------------------------------
|------------------------------------------------------------------------
|------------------------------------------------------------------------
|------------------------------------------------------------------------
|---7P6-7----10P9-10-----10-0-9--------------7P6-7----10P9-10-----10-0-9-
|-0-------88----------55--------7"-5"-7"---0-------88----------55--------
|         --          --                           --          --   
|                                                               GTR II
|------------------------------------------------------------------------
|------------------------------------------------------------------------
|------------------------------------------------------------------------
|------------------------------------------------------------------------
|---7P6-7----10P9-10-----10-0-9-------6"-----7P6-7----10P9-10-----10-0-9-
|-0-------88----------55--------7"-5"------0-------88----------55--------
          --          --                           --          --  

continuation of Riff E
-----------|
-----------|
-----------| GTRS I and II
-----------|
-----------|
-7"-3"-2"--|

Riff F                   		               GTRS 1/2 Clean
|----------0---------0---------0---------0----------0-----------0------|
|--------0---------0---------0---------0----------0-----------0--------|
|------8---------8---------5---------5----------8-----------8----------|
|----6---------6---------5---------5----------6-----------6------------|
|--4---------4---------3---------3-------------------------------------|
|-------------------------------------------4-----------4--------------|


|----------0------------0------------2--------2---------2---------2----|
|--------0------------0------------2--------2---------2---------2------|
|------5------------5------------4--------4---------4---------4--------|
|----2------------2------------4--------4---------4---------4----------|
|--0------------0------------2--------2---------0---------0------------|
|----------------------------------------------------------------------|

					    End Riff F
|----------2---------2---------------------------|
|--------2---------2-----------------------------|
|------4---------4---------4-----5-----4-----5---|
|----4---------4---------2---------- 2-----------|
|--2---------2---------0-----0-0----0-----0-0----|
|------------------------------------------------| Not sure about this one..



      solo riff                                                       GTR 1
|-------------------------------------------------------------------------
|-------------------------------------------------------------------------
|-------------------------------------------------------------------------
|-------------------------------------------------------------------------
|----7P6-7----10P9-10--00-10-0-9--------------7P6-7----10P9-10--00-10-0-9-
|-0--------88--------------------7"-5"-7"---0-------88--------------------
|          --          --                           --          --     
|                                                                   GTR II
|-------------------------------------------------------------------------
|-------------------------------------------------------------------------
|-------------------------------------------------------------------------
|-------------------------------------------------------------------------
|----7P6-7----10P9-10--00-10-0-9-------6"-----7P6-7----10P9-10--00-10-0-9-
|-0--------88--------------------7"-5"------0-------88--------------------
           --          --                           --          --   

continuation of Riff F
| 1.          | 2, 3.5
-------------|-----------------------------|
-------------|-----------------------------|
-------------|-----------------------------| 1/2
-------------|-----------------------------|
-7"-3"-2"-0"-|--3"-3"-2"-0"----------------|

Play Riff A 1 Time



Fill 1
|----------------|
|----------------|
|----------------|GTR
|--55-----44-----| 1
|-----777----666-|
|----------------|
      ---    ---   

Play Riff D once
play Riff C but end with:

guitar 1
|-----------------------------|
|-----------------------------|
|-----------------------------|
|-8---------------------------|
|-----------------------------|
|-6---------------------------|

guitar 2
|-----------------------------|
|-----------------------------|
|-3---6--10---6----3----------|
|-----------------------------|
|-1---4---8---4----1----------|
|-----------------------------|


- = Palm mute
" = Tremolo picking 
Comments