At The Gates - Blinded By Fear Chords & Tabs

 

Blinded By Fear Chords & Tabs

At The Gates Chords & Tabs

Version: 4 Type: Tab

Blinded By Fear Tab

   
At The Gates
Album: Slaughter Of Soul
"blinded by fear"

h = hammer on  
p = pull off
. = palm mute
~ = vibrato
b = bend
/ = slide
               
TUNING: b E A D G b

Intro:
B|-------------|
G|-------------|
D|-------------|
A|-5-4---------|
E|-3-2---5-4---|
B|-------3-2---|

Riff 1:
B|----------------------------------|
G|----------------------------------|
D|----------------------------------|
A|----------------------------------|
E|-10----10-9----9-12----9-10-------|
B|---0-0-----0-0-----8-8------7-7-7-|

Riff 2:
B|------------------------------------------------|
G|------------------------------------------------|
D|------------------------------------------------|
A|-2-2-2-2-------------1--2-2-2-2-------2------1--|
E|-2-2-2-2------2---------2-2-2-2-------2--2---1--|
B|-0-0-0-0-0h2h3--0h2h3---0-0-0-0--0h2h3---0------|
                                           .

Riff 3
Part 1:
B|--------------------------------------------------------|
G|--------------------------------------------------------|
D|--------------------------------------------------------|
A|----------------9--------8-----------------9------------|
E|----------7h10p7---7h10p7------------7h10p7---7h10p7-6--|
B|-00000000-----------------00000000----------------------|
   ........                 ........
[ Tab from: http://www.guitartabs.cc/tabs/a/at_the_gates/blinded_by_fear_tab_ver_4.html ]
Part 2:
B|-------------------|
G|-------------------|
D|-------------------|
A|----------5-4------|
E|----------3-2--5-4-|
B|-00000000------3-2-|
   ........


Riff 5
Guitar 1:
B|-------------------------------------------|
G|-------------------------------------------|
D|-----------7---6----------------5---4------|
A|-5---7-8---7---6------3---5-6---5---4------|
E|-5---7-8---5---4------3---5-6---3---2------|
B|-3---5-6--------------1---3-4--------------|

Guitar 2:
B|-----------------------------------------------------------------|
G|-----3-----3---------2-----2----------1-----1---------0-----0----|
D|---3-----3-----3---2-----2-----2----1-----1-----1---0-----0------| 
A|-5-----5-----5---5-----5-----5----3-----3-----3---3-----3--------|
E|-----------------------------------------------------------------|
B|-----------------------------------------------------------------|

Solo
Part 1:
B|---------------------------------------------------------|
G|-12~-------13-12-13----12-10---12b-12~-------12\8-8~---7-|
D|---------------------------------------------------------| 
A|---------------------------------------------------------|
E|---------------------------------------------------------|
B|---------------------------------------------------------|

Part 2:
B|--------------------------------|
G|--12-10p0-10-8p0-8-7p0-7-5p0-5~-|
D|--------------------------------|
A|--------------------------------|
E|--------------------------------|
B|--------------------------------|

part 3:
B|--------|
G|-12b~---|
D|--------|
A|--------|
E|--------|
B|--------|