At The Gates - And The World Returned Chords & Tabs

 

And The World Returned Chords & Tabs

At The Gates Chords & Tabs

Version: 1 Type: Tab 0 ratings
1 star 2 stars 3 stars 4 stars 5 stars
comments

And The World Returned Tab

   
          AT THE GATES - AND THE WORLD RETURNED
     From the Album "Terminal Spirit Desease" (1994)
  		PEACEVILLE RECORDS
 

I don't care about counting or bars, so please figure it out for 
yourself by listening, it shouldn't be too hard...  

transcribed by : Anders Bjorler AT THE GATES July 2000

~ - vibrato

Tuning: E

maximum of six guitars at the same time (Steel-stringed acoustics) 
1 viola (play with guitar) / I have tabbed it for guitar.
1 cello (play with bass instead) / I have tabbed it for 4-stringed bass.

 Intro  - guitar 1                           
|---------3---------------3---------------3---------------3-------|
|-----------3---------------3---------------3---------------3-----|
|-------3-----3---------3-----3---------3-----3---------3-----3---|
|-----5---------5-----5---------5-----5---------5-----5---------5-|
|---5---------------5---------------5---------------5-------------|
|-3---------------3---------------3---------------3---------------|
|
|
|Intro - guitar 2 
|-----------------------------------------------------------------|
|---------------------------------11--------------10--------------|
|-----------------------------------------------------------------|
|---------------------------------12--------------10--------------|
|-----------------------------------------------------------------|
|-----------------------------------------------------------------|


 RIFF 2 - Play two times
|-----------------------------------------------------------------|
|-----------------------------------------------------------------|
|-----8-----8---------7-----7-------5-----5-----------------------|gtr1
|---8-----8-----8---7-----7-----7-----5-----5---5-----5-----5-----|
|-6-----6-----6---5-----5-----5---3-----3-----3-----5-----5-----5-|
|-------------------------------------------------3-----3-----3---|
|
|
| 
|-----------------------------------------------------------------|
|-8---------------7-----------------------------------------------|
|---8-7-5~----------7-5-3~--------7-5-3-2~------320~--------------|gtr2
|-----------------------------------------------------------------|
|-----------------------------------------------------------------|
|-----------------------------------------------------------------|
| 
|
|
|-----------------------------------------------------------------|
|-8-----6~--------7-----------------------------------------------|
|-----------------------7~--------8-----7-------5-7~--------------|gtr3
|-----------------------------------------------------------------|
|-----------------------------------------------------------------|
|-----------------------------------------------------------------|



 RIFF 3 - Play two times
|----------------------------------------------------------------|
|----------------------------------------------------------------|
|---------------------5-----5-------------------------3-----3----|git1
|-----5-----5-------5-----5-----5-----3-----3-------3-----3-----3|
|---5-----5-----5-3-----3-----3-----3-----3-----3-1-----1-----1--|
|-3-----3-----3-------------------1-----1-----1------------------|
|								 |
|   								 |
|  								 |
|----------------------------------------------------------------|
|----------------------------------------------------------------|
|-----------------5---5------------------------------------------|git2
|-8-7-8~----5-7-8---8---8-7~------7-5-7~----3-5-7-8-7-8-7-5~-----|
|----------------------------------------------------------------|
|----------------------------------------------------------------|
|								 |
|								 |
|								 |
|----------------------------------------------------------------|
|---------------6------------------------------------------------|
|-7-5-7~----7-8---8-7-8~----------5-3-5~----5-7-8-7-5-7~---------|git3
|----------------------------------------------------------------|
|----------------------------------------------------------------|
|----------------------------------------------------------------|
|								 |
|								 |
|								 |
|----------------------------------------------------------------|
|----------------------------------------------------------------|bass
|-----------------3-------------------------------1--------------|
|-3-------------------------------1------------------------------|


 cont. 
|------------------------------------------------|
|------------------------------------------------|
|-----8-----8------------------------------------|git1
|---8-----8-----8-----6-----6--------------------|
|-6-----6-----6-----6-----6-----6--5~---3~-------|
|-----------------4-----4-----4--------------3~~-|
|					         |
|						 |
|						 |
|------------------------------------------------|
|------------------------------------------------|
|------------------------------------------------|git2
|-5-3-5~----1-3-5-6-5-6-5-3~---------------------|
|----------------------------------5~---3~-------|
|--------------------------------------------3~--|
|						 |
|						 |
|						 |
|------------------------------------------------|
|------------------------------------------------|
|-3-2-3~----3-5-7-5-3-5~-----------7----32-320~--|git3
|------------------------------------------------|
|------------------------------------------------|
|------------------------------------------------|
|						 |
| 						 |
|						 |
|------------------------------------------------|
|------------------------------------------------|
|-6--------------------------------5----3--------|bass
|-----------------4--------------------------3~--|

Play Riff 2 two times

 cello alone:
|-----------------------------------------------------------------|
|-----------------------------------------------------------------|bass
|---------------------------------6-6-6-6-6-6-6-6-5-5-5-5-5-5-----|
|-3-3-3-3-3-3-3-5-6-6-6-6-6-6-6-6-----------------------------6-5-|



then:

[ Tab from: http://www.guitartabs.cc/tabs/a/at_the_gates/and_the_world_returned_tab.html ]
 RIFF 4 (3 instrument foundation) Play 6 times
|-----------------------------------------------------------------|
|-----------------------------------------------------------------|bass
|-----------------------------------------------------------------|
|-3-3-3-3-3-3-3-3-3-3-3-3-3-3-5-5-6-6-6-6-6-6-6-6-6-6-6-6-6-6-6-6-|
|							          |
|								  |
| 								  |
|-----------------------------------------------------------------|
|-----------------------------------------------------------------|
|-----------------------------------------------------------------|
|-----------------------------------------------------------------|git1
|-----------------------------------------------------------------|
|-3-3-3-3-3-3-3-3-3-3-3-3-3-3-5-5-6-6-6-6-6-6-6-6-6-6-6-6-6-6-6-6-|
|								  |
|								  |
|								  |
|-----------------------------------------------------------------|
|-----------------------------------------------------------------|
|-3-3-3-3-3-3-3-3-2-2-2-2-2-2-2-2-2-2-2-2-2-2-2-2-0-0-0-0-0-0-0-0-|git2
|-5-5-5-5-5-5-5-5-5-5-5-5-5-5-5-5-3-3-3-3-3-3-3-3-3-3-3-3-3-3-3-3-|
|-----------------------------------------------------------------|
|-----------------------------------------------------------------|


 cont.
|-----------------------------------------------------------------|
|-----------------------------------------------------------------|bass
|-6-6-6-6-6-6-6-6-6-6-6-6-6-6-6-6-5-5-5-5-5-5-5-5-5-5-5-5---------|
|---------------------------------------------------------6-6-5-5-|
|						                  |
|						                  |
| 						                  |
|-----------------------------------------------------------------|
|-----------------------------------------------------------------|
|-----------------------------------------------------------------|
|-----------------------------------------------------------------|git1
|-6-6-6-6-6-6-6-6-6-6-6-6-6-6-6-6-5-5-5-5-5-5-5-5-5-5-5-5---------|
|---------------------------------------------------------6-6-5-5-|
|						                  |
|						                  |
|						                  |
|-----------------------------------------------------------------|
|-----------------------------------------------------------------|
|-----------------------------------------------------------------|git2
|-5-5-5-5-5-5-5-5-3-3-3-3-3-3-3-3-3-3-3-3-3-3-3-3-----------------|
|-6-6-6-6-6-6-6-6-6-6-6-6-6-6-6-6-5-5-5-5-5-5-5-5-5-5-5-5-5-5-----|
|-------------------------------------------------6-6-6-6-6-6-5-5-|



 RIFF 4 // dub-guitar 1 // (comes in 2:nd time of Riff 4, and plays 5 times)
|-----------------------------------------------------------------|
|-----------------------------------------------------------------|
|-7-7-7-7-7-7-7-7-5-5-5-5-5-5-5-5-5-5-5-5-5-5-5-5-3-3-3-3-3-3-3-3-|git3
|-8-8-8-8-8-8-8-8-8-8-8-8-8-8-8-8-7-7-7-7-7-7-7-7-7-7-7-7-7-7-7-7-|
|-----------------------------------------------------------------|
|-----------------------------------------------------------------|


 cont.
|-----------------------------------------------------------------|
|-----------------------------------------------------------------|
|-3-3-3-3-3-3-3-3-3-3-3-3-3-3-3-3-5-5-5-5-5-5-5-5-7-7-7-7-7-7-7-7-|git3
|-5-5-5-5-5-5-5-5-5-5-5-5-5-5-5-5-7-7-7-7-7-7-7-7-8-8-8-8-8-8-8-8-|
|-----------------------------------------------------------------|
|-----------------------------------------------------------------|


 RIFF 4 // dub-guitar 2 // (comes in third time of RIFF 4, and plays 4 times)
|-----------------------------------------------------------------|
|-6-6-6-6-6-6-6-6-4-4-4-4-4-4-4-4-4-4-4-4-4-4-4-4-3-3-3-3-3-3-3-3-|
|-7-7-7-7-7-7-7-7-7-7-7-7-7-7-7-7-5-5-5-5-5-5-5-5-5-5-5-5-5-5-5-5-|git4
|-----------------------------------------------------------------|
|-----------------------------------------------------------------|
|-----------------------------------------------------------------|


 cont.
|-----------------------------------------------------------------|
|-3-3-3-3-3-3-3-3-1-1-1-1-1-1-1-1-1-1-1-1-1-1-1-1-3-3-3-3-3-3-3-3-|
|-3-3-3-3-3-3-3-3-3-3-3-3-3-3-3-3-2-2-2-2-2-2-2-2-3-3-3-3-3-3-3-3-|git4
|-----------------------------------------------------------------|
|-----------------------------------------------------------------|
|-----------------------------------------------------------------|


RIFF 4 // solo guitar 1 // (comes in fifth time, and plays 2 times)

|-----------------------------------------------------------------|
|----------------------------6------------------------------------|
|-7---5---7~---------7---8-------8---7---8~-----------------------|git5
|-----------------------------------------------------------------|
|-----------------------------------------------------------------|
|-----------------------------------------------------------------|


 cont.
|-----------------------------------------------------------------|
|-----------------------------------------------------------------|
|-7---5---7~---------7---8---7---5---5---3~-----------------------|
|-----------------------------------------------------------------|
|-----------------------------------------------------------------|
|-----------------------------------------------------------------|


RIFF 4 // solo guitar 2 // (comes in fifth time, and plays 2 times)

|-----------------------------------------------------------------|
|-----------------------------------------------------------------|
|--------------------------------5-------5------------------------|git6
|-8---7---8~---------5---7---8-------8-------8---7~---------------|
|-----------------------------------------------------------------|
|-----------------------------------------------------------------|


 cont.
|-----------------------------------------------------------------|
|-----------------------------------------------------------------|
|--------------------------------5~----------5--------------------|
|-8---7---8~---------5---7---8-------------------8~---------------|
|-----------------------------------------------------------------|
|-----------------------------------------------------------------|


PLAY RIFF 2 two times like above
but with viola (+1 note cello) playing lead:


 viola (tabbed for guitar (git4)) 
|--------------------------------------------------------------------------------------|
|-8---8~-----7--8--10~-----11--10-----8-8~-------8---8~-----7--8~------8---------*-----|
|----------------------------------------------------------------------------7-5-3~----|
|--------------------------------------------------------------------------------------|viola
|--------------------------------------------------------------------------------------|
|--------------------------------------------------------------------------------------|
|
| 
|--------------------------------------------------------------------------------------|
|--------------------------------------------------------------------------------------|bass
|--------------------------------------------------------------------------------*-----|(cello)
|--------------------------------------------------------------------------------3-----|

								* - Ring out over Outro

OUTRO // end with:

|-----------3----3--------------|
|---------3------3--------------|
|-------3--------3--------------|git1
|-----5----------5--------------|
|---5------------5--------------|
|-3--------------3--------------|
|
|
|----------------3--------------|
|----------------3--------------|
|----------------3--------------|git1
|----------------5--------------|
|----------------5--------------|
|----------------3--------------|
Comments