At The Drive In - Star Slight Chords & Tabs

 

Star Slight Chords & Tabs

At The Drive In Chords & Tabs

Version: 2 Type: Tab 0 ratings
1 star 2 stars 3 stars 4 stars 5 stars
comments

Star Slight Tab

   
#----------------------------------PLEASE NOTE--------------------------------#
#This file is the author's own work and represents their interpretation of the#
#song. You may only use this file for private study, scholarship, or research.#
#-----------------------------------------------------------------------------#
#-- File created with Instab - http://www.pconline.com/~smcarey/instab.html --#
#-----------------------------------------------------------------------------#

Author/Artist: at the drive in
Title: star slight
Album: acrobatic tenament
Transcribed by: dave cecconi
Email: dukebloodevils@aol.com

at the drive in have to be the greatest underground outfit i've ever heard. it's
 too bad they have broken up.
can't wait to follow 'sparta' and 'the mars volta project' --that's the two side
 projects the band split into.
have fun with this one...gotta love the overlappin vocals in here.

-|----2----|---------|---------|----------------------------------------------|
-|----3----|---------|----0----|----------------------------------------------|
-|----2----|----0----|----4----|----------------------------------------------|
-|----0----|----2----|----4----|----------------------------------------------|
-|----x----|----2----|----2----|----------------------------------------------|
-|---------|----x----|---------|----------------------------------------------|
      D         E         B        [ Tab from: http://www.guitartabs.cc/tabs/a/at_the_drive_in/star_slight_tab_ver_2.html ]
-|----x----|---------|----3----|----------------------------------------------|
-|----2----|----0----|----0----|----------------------------------------------|
-|----2----|----4----|----0----|----------------------------------------------|
-|----2----|----4----|----2----|----------------------------------------------|
-|----0----|----2----|----3----|----------------------------------------------|
-|---------|---------|----x----|----------------------------------------------|
     Ax2        B         G        
							
													
Comments