At The Drive-in - Shaking Hand Incision Chords & Tabs

 

Shaking Hand Incision Chords & Tabs

At The Drive-in Chords & Tabs

Version: 1 Type: Bass Tab 0 ratings
1 star 2 stars 3 stars 4 stars 5 stars
comments

Shaking Hand Incision Bass Tab

riff one                                            5x (rest for drums after 2x)
G||----------------------------|-------------------------||
D||*---------------------------|------------------------*||
A||*---------------------------|------------------------*||
E||---3--5-5-5--5----5--5--5-5-|--2---3---2---0--2--0----||


 
  riff two                                                                         
||-----------------------|---------------------------|-----------------------|
||-----------------------|------------------5--4-----|-----------------------|
||--5--------------------|--5--------5------------5--|--4--------------------|
||-----------------------|---------------------------|-----------------------|
                                                      
---------------------------|-------------------------|---------------------------|
---------------------------|------------5------------|-----------5---------------|
--4--------4------6--4--0--|--3----3-----------------|--3---------------3--3--3--|
---------------------------|-------------------------|---------------------------|
                                                   
-----------------------|----------------------------||
-----------------------|----------------------------||
--2--------------------|--2----3----2------0--2--0--||
-----------------------|----------------------------||


  
  riff one                                            3x  
||----------------------------|-------------------------||
||*---------------------------|------------------------*||
||*---------------------------|------------------------*||
||---3--5-5-5--5----5--5--5-5-|--2---3---2---0--2--0----||



  
  riff two                                                  
||-----------------------|---------------------------|-----------------------|
||-----------------------|------------------5--4-----|-----------------------|
||--5--------------------|--5--------5------------5--|--4--------------------|
||-----------------------|---------------------------|-----------------------|
                                                                              
---------------------------|-------------------------|---------------------------|
---------------------------|------------5------------|-----------5---------------|
--4--------4------6--4--0--|--3----3-----------------|--3---------------3--3--3--|
---------------------------|-------------------------|---------------------------|
                                                   
-----------------------|----------------------------||
-----------------------|----------------------------||
--2--------------------|--2----3----2------0--2--0--||
-----------------------|----------------------------||



  riff three                                                                      
||--------------------|--------------------|---------------------|
||*-------------------|---------------5----|-----------5----5----|
||*--5----------------|--5-----------------|--5------------------|
||--------------------|--------------------|---------------------|
                                                                                3x
-----------------------|----------------------------|-----------------------------||
------------5----5-----|----------------------------|----------------------------*||
--5----5------------5--|--3----3----3------3--3--3--|--7----7----7------7--7--7--*||
-----------------------|----------------------------|-----------------------------||



  riff one                            
||----------------------------|-------------------------||
||*---------------------------|------------------------*||
||*---------------------------|------------------------*||
||---3--5-5-5--5----5--5--5-5-|--2---3---2---0--2--0----||


[ Tab from: http://www.guitartabs.cc/tabs/a/at_the_drive_in/shaking_hand_incision_btab.html ]
  riff two                        
||-------------------------|----------------------------|-------------------------|
||-------------------------|-------------------5--4-----|-------------------------|
||--5----5----5------------|--5----5----5------------5--|--4----4----4------------|
||-------------------------|----------------------------|-------------------------|
                                                       
----------------------------|-------------------------|----------------------------|
----------------------------|-------------------------|------------5---------------|
--4----4----4------6--4--0--|--3----3----3------------|--3----3-----------3--3--3--|
----------------------------|-------------------------|----------------------------|
                                                       
-------------------------|----------------------------||
-------------------------|----------------------------||
--2----2----2------------|--2----3----2------0--2--0--||
-------------------------|----------------------------||


drop out for guitar


  break                      
||-------------------------|---------------------------||
||*--7----7--7--7----7--7--|--9--9--9--9--------------*||
||*------------------------|--------------9--9--7--9--*||
||-------------------------|---------------------------||
                             
||----------------------------|---------------------------|
||*---------------------------|---------------------------|
||*--9--9-9-9--9----9--9--9-9-|--9--9-9-9--9----9--9--9-9-|
||----------------------------|---------------------------|
                                                                 
------------------------------------|-------------------------------------||
------------------------------------|------------------------------------*||
--10--10-10-10--10----10--10--10-10-|--10--10-10-10--10----10--10--10-10-*||
------------------------------------|-------------------------------------||
                                                              
||-----------------------|-----------------------|----------------------------|
||-----------------------|-----------------------|----------------------------|
||--9------9----9--9--7--|--9------9----9--7--9--|--10------10----10--10--10--|
||-----------------------|-----------------------|----------------------------|
                                                                                
-------------------------------|-----------------------|-----------------------|
---------------12--------------|-----------------------|-----------------------|
--9h-10--10--------10--10--10--|--9------9----9--9--7--|--9------9----9--7--9--|
-------------------------------|-----------------------|-----------------------|
                                                                           
----------------------------|-----------------------||
----------------------------|-----------------------||
--10------10----10--10--10--|--9h-10----9----7------||
----------------------------|-----------------------||



  riff three
||--------------------|--------------------|---------------------|
||*-------------------|---------------5----|-----------5----5----|
||*--5----------------|--5-----------------|--5------------------|
||--------------------|--------------------|---------------------|
                                                                   
-----------------------|----------------------------|-----------------------------||
------------5----5-----|----------------------------|----------------------------*||
--5----5------------5--|--3----3----3------3--3--3--|--7----7----7------7--7--7--*||
-----------------------|----------------------------|-----------------------------||



  end                                                                              
||-------------------|----------------------|-------------------|-------------------|
||-------------------|----------------------|-------------------|-------------------|
||--5----------------|--5-------------5-5-5-|--5----------------|--5----------------|
||-------------------|----------------------|-------------------|-------------------|
                                                                        
-------||
-------||
--5----||
-------||
Comments