At The Drive-in - Rascuache Chords & Tabs

 

Rascuache Chords & Tabs

At The Drive-in Chords & Tabs

Version: 1 Type: Bass Tab 0 ratings
1 star 2 stars 3 stars 4 stars 5 stars
comments

Rascuache Bass Tab

   
E,A,D,G

intro-
8 times
--------------| distorted
--------------|
--------------|
00-0-0-0000---|

8 times
--------------| distorted
--------------|
--------.-----|
00-00-0-0-----|

once
----------------------------| distorted
----------------------------|
---------------------.------|
00-0-0-00-0-0-00-0-0-0------|

verse-
twice
------------------------------|
------------------------------|
------------------------------|
12-121212------10-101010------|

--------------------------|
--------------------------|
--------------------------|
5-555-----3-33333-33333-33|

verse ending-
once
------------------------------|
------------------------------|
------------------------------|
12-121212------10-101010------|
[ Tab from: http://www.guitartabs.cc/tabs/a/at_the_drive_in/rascuache_btab.html ]
-------------------------------|
-------------------------------|
-------------------------------|
5--555---------3-33333-33333-33|

chorus-
twice
----------------------------------------|
----------------------------------------|
----------------------------------------|
12-1212121212-12-12-10-1010101010-10-10-|

----------------------------|
----------------------------|
------------.---.---.---.---|
5-55555-5-5-3---3---3---3---|

verse 4 times

chorus 3 times

bridge-
twice
---------------------------------------------|
---------------------------------------------|
---------------------0-5-7--7-7--7-5--5------|
/7-------5-0-3--------------------------5--5-|

---------------------------------------------|
---------------------------------------------|
---------------------0-5-7--7-7--5-7--7-7----|
/7-------5-0-3-----------------------------5-|

bridge end-
once
--------------------|
--------------------|
7--7-7--5-7--7-7----|
------------------5-|

rest

chorus four times
Comments